Oops, an error
Loading. Please wait.

Built In Girls tab

28 views 1 this week
no commentswrite comment
1 2 3 4 5
3 more votes to show rating
add to favorites
×
Save as Personal and add changes to this tab that will be seen only by you. Learn more ›
×
You can save this tab as Personal to edit and correct it or add notes. All changes will be seen only by you. Learn more »
launch autoscroll
font size
0
reset
how to read this tab
guitar tuner
edit
Autoscroll
slow
fast
+/-
esc
set tempo
stop
Author
Difficulty
Built in Girls - guitar tab

[Intro]

Guitar 1:

e|--1-1-1-1----1-1-1~----1-1-1-1----1--------|
B|--1-1-1-1----1-1-1~----1-1-1-1----1--------|
G|--2-2-2-2----2-2-2~----2-2-2-2----2--------|
D|--3-3-3-3----3-3-3~----3-3-3-3----3--------|
A|--3-3-3-3----3-3-3~----3-3-3-3----3--------|
E|--1-1-1-1----1-1-1~----1-1-1-1----1--------|
                                            
Guitar 2:

e|---------------|
B|---------------|
G|--10-11-12-13--|
D|--x--x--x--x---|
A|--8--9--10-11--|
E|---------------|

Guitar 3:

e|--------------------------------------------|
B|--10vvvv~~~~~~~~----------------------------|
G|--------------------------------------------|
D|--------------------------------------------|
A|--------------------------------------------|
E|--------------------------------------------|

[Verse 1]

Guitar 1: 

e|-----------------------------------|
B|-----------------------------------|
G|--------------x-7-7-7-7-6-5-5-5-5--|
D|--7-7-7-6-5-5-x-7-7-7-7-6-5-5-5-5--|
A|--7-7-7-6-5-5-x-5-5-5-5-4-3-3-3-3--|x3
E|--5-5-5-4-3-3-x--------------------|

e|-----------------------------------|
B|-----------------------------------|
G|--------------x-7-7-7-7-6-5---5----|
D|--7-7-7-6-5-5-x-7-7-7-7-6-5---5----|
A|--7-7-7-6-5-5-x-5-5-5-5-4-3---3----|
E|--5-5-5-4-3-3-x--------------------|

e|-----------------------------------|
B|-----------------------------------|
G|--------------x-7-7-7-7-6-5-5-5-5--|
D|--7-7-7-6-5-5-x-7-7-7-7-6-5-5-5-5--|
A|--7-7-7-6-5-5-x-5-5-5-5-4-3-3-3-3--|x4
E|--5-5-5-4-3-3-x--------------------|

Guitar 2:

e|---------------------------------------------------------------------------------------|
B|---------------------------------------------------------------------------------------|
G|--14-14-14-14-12-12-12-12-7-7-7-7-5-5-5-5-14-14-14-14-12-12-12-12-7-7-7-7-10-10-10-10--|
D|--x--x--x--x--x--x--x--x--x-x-x-x-x-x-x-x-x--x--x--x--x--x--x--x--x-x-x-x-x--x--x--x---|
A|--12-12-12-12-10-10-10-10-5-5-5-5-3-3-3-3-12-12-12-12-10-10-10-10-5-5-5-5-8--8--8--8---|
E|---------------------------------------------------------------------------------------|

e|---------------------------------------------------------------|
B|---------------------------------------------------------------|
G|--16--14--16--14--16--14--16--14--16--14--16--14--17-17-17-17--|
D|--x---x---x---x---x---x---x---x---x---x---x---x---x--x--x--x---|
A|--14--12--14--12--14--12--14--12--14--12--14--12--15-15-15-15--|x2
E|---------------------------------------------------------------|

e|---------------------------------------------------------------------------------------|
B|---------------------------------------------------------------------------------------|
G|--14-14-14-14-12-12-12-12-7-7-7-7-5-5-5-5-14-14-14-14-12-12-12-12-7-7-7-7-10-10-10-10--|
D|--x--x--x--x--x--x--x--x--x-x-x-x-x-x-x-x-x--x--x--x--x--x--x--x--x-x-x-x-x--x--x--x---|
A|--12-12-12-12-10-10-10-10-5-5-5-5-3-3-3-3-12-12-12-12-10-10-10-10-5-5-5-5-8--8--8--8---|
E|---------------------------------------------------------------------------------------|

e|---------------------------------------------------------------|
B|---------------------------------------------------------------|
G|--16--14--16--14--16--14--16--14--16--14--16--14--17-17-17-17--|
D|--x---x---x---x---x---x---x---x---x---x---x---x---x--x--x--x---|
A|--14--12--14--12--14--12--14--12--14--12--14--12--15-15-15-15--|x2
E|---------------------------------------------------------------|

[Guitar 3]

e|----------------------------------------------------|
B|--14~------------/15~--------------/17~-------------|
G|----------------------------------------------------|
D|----------------------------------------------------|
A|----------------------------------------------------|
E|----------------------------------------------------|

e|---------------------------|
B|--17b18r17b18r17b18r17b18--|x3
G|---------------------------|
D|---------------------------|
A|---------------------------|
E|---------------------------|

e|-------------------|
B|--17b18r17b18r17~--|
G|-------------------|
D|-------------------|
A|-------------------|
E|-------------------|

[Chorus 1]

Guitar 1:

e|--------------------------------------------------------------------------------------|
B|--------------------------------------------------------------------------------------|x2
G|--10/12-12-12-12-12-12-12-12\9-9-9-9-9-9-9-9/10-10-10-10-10-10-10-10\8-8-8-8-8-8-8-8--|
D|--x--x--x--x--x--x--x--x--x--x-x-x-x-x-x-x-x-x--x--x--x--x--x--x--x--x-x-x-x-x-x-x-x--|
A|--8-/10-10-10-10-10-10-10-10\7-7-7-7-7-7-7-7/8--8--8--8--8--8--8--8-\6-6-6-6-6-6-6-6--|
E|--------------------------------------------------------------------------------------|

Guitar 2:

Strum C5 power chord

[Instrumental]

Guitar 1:

e|-----------------------------------|
B|-----------------------------------|
G|--------------x-7-7-7-7-6-5-5-5-5--|
D|--7-7-7-6-5-5-x-7-7-7-7-6-5-5-5-5--|
A|--7-7-7-6-5-5-x-5-5-5-5-4-3-3-3-3--|
E|--5-5-5-4-3-3-x--------------------|

e|-----------------------------------|
B|-----------------------------------|
G|--------------x-7-7-7-7-6-5---5----|
D|--7-7-7-6-5-5-x-7-7-7-7-6-5---5----|
A|--7-7-7-6-5-5-x-5-5-5-5-4-3---3----|
E|--5-5-5-4-3-3-x--------------------|

Guitar 2:

e|-------------------------------------------|
B|--10--/12--\10--\5-/10-10--/12---10--\5----|x2 
G|-------------------------------------------|
D|-------------------------------------------|
A|-------------------------------------------|
E|-------------------------------------------|

[Verse 2]

Guitar 1:

e|-----------------------------------|
B|-----------------------------------|
G|--------------x-7-7-7-7-6-5-5-5-5--|
D|--7-7-7-6-5-5-x-7-7-7-7-6-5-5-5-5--|
A|--7-7-7-6-5-5-x-5-5-5-5-4-3-3-3-3--|
E|--5-5-5-4-3-3-x--------------------|

e|------------------------------------|
B|------------------------------------|
G|--------------x-7-7-7-7-6-5---5-----|
D|--7-7-7-6-5-5-x-7-7-7-7-6-5---5-----|
A|--7-7-7-6-5-5-x-5-5-5-5-4-3---3-----|
E|--5-5-5-4-3-3-x---------------------|  

e|-----------------------------------|
B|-----------------------------------|
G|--------------x-7-7-7-7-6-5-5-5-5--|
D|--7-7-7-6-5-5-x-7-7-7-7-6-5-5-5-5--|
A|--7-7-7-6-5-5-x-5-5-5-5-4-3-3-3-3--|
E|--5-5-5-4-3-3-x--------------------|

e|-----------------------------------|
B|-----------------------------------|
G|--------------x-7-7-7-7-6-5---5/7--|
D|--7-7-7-6-5-5-x-7-7-7-7-6-5---5/7--|
A|--7-7-7-6-5-5-x-5-5-5-5-4-3---3/5--|
E|--5-5-5-4-3-3-x--------------------|

e|-----------------------------------|
B|-----------------------------------|
G|--------------x-7-7-7-7-6-5-5-5-5--|
D|--7-7-7-6-5-5-x-7-7-7-7-6-5-5-5-5--|
A|--7-7-7-6-5-5-x-5-5-5-5-4-3-3-3-3--|x2
E|--5-5-5-4-3-3-x--------------------|

Guitar 2:

e|---------------------------------------------------------------------------------------|
B|---------------------------------------------------------------------------------------|
G|--14-14-14-14-12-12-12-12-7-7-7-7-5-5-5-5-14-14-14-14-12-12-12-12-7-7-7-7-10-10-10-10--|
D|--x--x--x--x--x--x--x--x--x-x-x-x-x-x-x-x-x--x--x--x--x--x--x--x--x-x-x-x-x--x--x--x---|
A|--12-12-12-12-10-10-10-10-5-5-5-5-3-3-3-3-12-12-12-12-10-10-10-10-5-5-5-5-8--8--8--8---|
E|---------------------------------------------------------------------------------------|

e|---------------------------------------------------------------|
B|---------------------------------------------------------------|
G|--16--14--16--14--16--14--16--14--16--14--16--14--17-17-17-17--|
D|--x---x---x---x---x---x---x---x---x---x---x---x---x--x--x--x---|
A|--14--12--14--12--14--12--14--12--14--12--14--12--15-15-15-15--|
E|---------------------------------------------------------------|

e|---------------------------------------------------------------|
B|--------------------------------------------------15~----------|
G|--16--14--16--14--16--14--16--14--16--14--16--14--17~----------|
D|--x---x---x---x---x---x---x---x---x---x---x---x----------------|
A|--14--12--14--12--14--12--14--12--14--12--14--12---------------|
E|---------------------------------------------------------------|

e|---------------------------------------------------------------------------------------|
B|---------------------------------------------------------------------------------------|
G|--14-14-14-14-12-12-12-12-7-7-7-7-5-5-5-5-14-14-14-14-12-12-12-12-7-7-7-7-10-10-10-10--|
D|--x--x--x--x--x--x--x--x--x-x-x-x-x-x-x-x-x--x--x--x--x--x--x--x--x-x-x-x-x--x--x--x---|
A|--12-12-12-12-10-10-10-10-5-5-5-5-3-3-3-3-12-12-12-12-10-10-10-10-5-5-5-5-8--8--8--8---|
E|---------------------------------------------------------------------------------------|

[Chorus 2]

Guitar 1:

e|--------------------------------------------------------------------------------------|
B|--------------------------------------------------------------------------------------|x4
G|--10/12-12-12-12-12-12-12-12\9-9-9-9-9-9-9-9/10-10-10-10-10-10-10-10\8-8-8-8-8-8-8-8--|
D|--x--x--x--x--x--x--x--x--x--x-x-x-x-x-x-x-x-x--x--x--x--x--x--x--x--x-x-x-x-x-x-x-x--|
A|--8-/10-10-10-10-10-10-10-10\7-7-7-7-7-7-7-7/8--8--8--8--8--8--8--8-\6-6-6-6-6-6-6-6--|
E|--------------------------------------------------------------------------------------|

Guitar 2:

Strum C5 power chord

[Solo]

Guitar 1:

e|-----------------------------------|
B|-----------------------------------|
G|--------------x-7-7-7-7-6-5-5-5-5--|
D|--7-7-7-6-5-5-x-7-7-7-7-6-5-5-5-5--|
A|--7-7-7-6-5-5-x-5-5-5-5-4-3-3-3-3--|x4
E|--5-5-5-4-3-3-x--------------------|

Guitar 2:

e|-------------------------------------------|
B|--10--/12--\10--\5-/10-10--/12---10--\5----|x2
G|-------------------------------------------|
D|-------------------------------------------|
A|-------------------------------------------|
E|-------------------------------------------|

e|---------------------------------------------------------------|
B|--15b-15b-15b-15b-15b-15b-15b-15b-15h17p15--------17p15--------|
G|-------------------------------------------17p14--------17p14--|
D|---------------------------------------------------------------|
A|---------------------------------------------------------------|
E|---------------------------------------------------------------|

e|--20-17---------------------------------15~--|
B|--------20-17---15b17r15-13-15b17r15-13------|
G|---------------------------------------------|
D|---------------------------------------------|
A|---------------------------------------------|
E|---------------------------------------------|

[Final chorus] 

Guitar 1:

e|--------------------------------------------------------------------------------------|
B|--------------------------------------------------------------------------------------|x6
G|--10/12-12-12-12-12-12-12-12\9-9-9-9-9-9-9-9/10-10-10-10-10-10-10-10\8-8-8-8-8-8-8-8--|
D|--x--x--x--x--x--x--x--x--x--x-x-x-x-x-x-x-x-x--x--x--x--x--x--x--x--x-x-x-x-x-x-x-x--|
A|--8-/10-10-10-10-10-10-10-10\7-7-7-7-7-7-7-7/8--8--8--8--8--8--8--8-\6-6-6-6-6-6-6-6--|
E|--------------------------------------------------------------------------------------|

Guitar 2:

e|--------15~---------15~---------15~--------15-------15--|
B|--12b13-------12b13-------12b13------12b13----12b13-----|x2
G|--------------------------------------------------------|
D|--------------------------------------------------------|
A|--------------------------------------------------------|
E|--------------------------------------------------------|

e|--------15~---------15~--|
B|--12b13-------12b13-12~--|
G|-------------------------|
D|-------------------------|
A|-------------------------|
E|-------------------------|

Guitar 3:

Strum C5 power chord

==================================
/ - slide up 
\ - slide down 
b - bend 
h - hammer on 
p - pull off 
x - mute string 
v - vibrato 
~ - sustain 
===================================

Tabbed by Patrick Johnston 

            
            
Suggest correction
Creating personal tab
Creating personal tab
You can edit any tab online and save it as your Personal.

You can edit, replace or remove any tab part or add personal notes – all changes will be seen only by you.

Personal tabs can be accessed anytime from any device, even offline.
Learn more »
Give kudos to tab author, rate the tab!
1 2 3 4 5
comments
print report bad tab
guest
You may want to rate the tab now too:
select rating
Wanna post a correction for this tab? Suggest correction