Oops, an error
Loading. Please wait.

Counted On Sweetness tab

19 views 3 this week
no commentswrite comment
1 2 3 4 5
3 more votes to show rating
add to favorites
×
Save as Personal and add changes to this tab that will be seen only by you. Learn more ›
×
You can save this tab as Personal to edit and correct it or add notes. All changes will be seen only by you. Learn more »
launch autoscroll
font size
0
reset
how to read this tab
guitar tuner
edit
Autoscroll
slow
fast
+/-
esc
set tempo
stop
Author
Difficulty
The Wrens - Counted on Sweetness - guitar tab

[Intro]

Guitar 1:

e|---------|
B|---------|
G|--9\\\\--|
D|--x------|
A|--7\\\\--|
E|---------|

e|----------------------------------------------|
B|-------14----13-13----13------14----13-13-----|
G|----12----12-------12------12----12-----------|
D|----------------------------------------------|
A|----------------------------------------------|
E|----------------------------------------------|

e|--------------------------------------------------|
B|-------14----13-13----13------14----13-13----13b--|
G|----12----12-------12------12----12-------12------|
D|--------------------------------------------------|
A|--------------------------------------------------|
E|--------------------------------------------------|

Guitar 2:

e|------|
B|--13--|
G|--12--|
D|------|
A|------|
E|------|

e|---------------------------|
B|--14-14-14-13-13-13-13-13--|
G|--14-14-14-14-14-14-14-14--|
D|---------------------------|
A|---------------------------|(x3)
E|---------------------------|

e|-------------------------------|
B|--14-14-14-13-13-13-14---13~---|
G|--14-14-14-14-14-14-14---14~---|
D|-------------------------------|
A|-------------------------------|
E|-------------------------------|

[Verse 1]

Guitar 1:

e|---------------------------|--------------------------------------------------|
B|-------14----13-13----13b--|-------14----13-13----13------14----13-13----13~--|
G|----12----12-------12------|----12----12-------12------12----12-------12------|
D|---------------------------|--------------------------------------------------|
A|---------------------------|--------------------------------------------------|
E|---------------------------|--------------------------------------------------|

e|---------------------|
B|------14-14----------|
G|------17-17----------|
D|---------------------|
A|---------------------|
E|---------------------|

Guitar 2:

e|---------------|---------------|----------|
B|-------13------|--14----13~----|-----13~--|
G|--14------14~--|--14----14~----|--14------|
D|---------------|---------------|----------|
A|---------------|---------------|----------|
E|---------------|---------------|----------|   

[Chorus 1]

Guitar 1:

e|--8--8--8--8--8--8--8--8--8--8--8--8--8--8--8--8---|
B|--12-12-12-12-12-12-12-12-12-12-12-12-12-12-12-12--|
G|---------------------------------------------------|
D|---------------------------------------------------|
A|---------------------------------------------------|
E|---------------------------------------------------|

e|--8--8--8--8--8--8--8--8--8--8--7--7--5----10-11--|
B|--12-12-12-12-12-12-12-12-12-12-10-10-8-13----15--|
G|--------------------------------------------------|
D|--------------------------------------------------|
A|--------------------------------------------------|
E|--------------------------------------------------|

e|--13-13-13-13-13-13-13-13-13-13-13-13-14-14-14-14--|
B|--17-17-17-17-17-17-17-17-17-17-17-17-17-17-17-17--|
G|---------------------------------------------------|
D|---------------------------------------------------|
A|---------------------------------------------------|
E|---------------------------------------------------|

e|--15-15-15-15-15-15-15-15-15-15-15-15-13-13-13-13--|
B|--18-18-18-18-18-18-18-18-18-18-18-18-17-17-17-17--|
G|---------------------------------------------------|
D|---------------------------------------------------|
A|---------------------------------------------------|
E|---------------------------------------------------|

Guitar 2:

e|--8-8-8-101010\8-8-8-8-8-8-12-12\10-10-101010\8-8-8-8-7-7-101010\8-8-8-8-7-7-88--|
B|--x-x-x-x-x-x--x-x-x-x-x-x-x--x--x--x--x-x-x--x-x-x-x-x-x-x-x-x--x-x-x-x-x-x-xx--|
G|--5-5-5-7-7-7-\5-5-5-5-5-5-9--9-\7--7--7-7-7-\5-5-5-5-4-4-7-7-7-\5-5-5-5-4-4-55--|
D|---------------------------------------------------------------------------------|
A|---------------------------------------------------------------------------------|
E|---------------------------------------------------------------------------------|
    
e|--8-8-8-101010\8-8-8-8-8-8-12-12\10-10-10-10\8-8-8-8-7-7-101010\8-8-8-8-7-7----|
B|--x-x-x-x-x-x--x-x-x-x-x-x-x--x--x--x--x--x--x-x-x-x-x-x-x-x-x--x-x-x-x-x-x----|
G|--5-5-5-7-7-7-\5-5-5-5-5-5-9--9-\7--7--7--7-\5-5-5-5-4-4-7-7-7-\5-5-5-5-4-4----|
D|-------------------------------------------------------------------------------|
A|-------------------------------------------------------------------------------|
E|-------------------------------------------------------------------------------|

[Instrumental]

Guitar 1:

e|-------------------------------------------------|
B|-------14----13-13----13------14----13-13----13--|
G|----12----12-------12------12----12-------12-----|
D|-------------------------------------------------|
A|-------------------------------------------------|
E|-------------------------------------------------|

e|---------------------------------------------|
B|--------------------------14----13-13----13--|
G|-----------------------12----12-------12-----|
D|---------------------------------------------|
A|---------------------------------------------|
E|---------------------------------------------|

Guitar 2:

e|---------------------------|
B|--14-14-14-13-13-13-13-13--|
G|--14-14-14-14-14-14-14-14--|
D|---------------------------|
A|---------------------------|(x3)
E|---------------------------|

e|-------------------------------|
B|--14-14-14-13-13-13-14---13~---|
G|--14-14-14-14-14-14-14---14~---|
D|-------------------------------|
A|-------------------------------|
E|-------------------------------|

[Verse 2]

Guitar 1:

e|--------------------------|------x-x-x-----x-x-x--------|
B|-------14----13-13----13--|------x-x-x-----x-x-x--------|
G|----12----12-------12-----|------x-x-x-----x-x-x--------|
D|--------------------------|------x-x-x-----x-x-x--------|
A|--------------------------|------x-x-x-----x-x-x--------|
E|--------------------------|------x-x-x-----x-x-x--------|

e|---------x-x-x-----x-x-x-x-x-x--------|-----------------------------------------------|
B|------13-x-x-x-----x-x-x-x-x-x--------|-------14----13-13----13------14----13-13------|
G|------16-x-x-x-----x-x-x-x-x-x--------|----12----12-------12------12----12------------|
D|---------x-x-x-----x-x-x-x-x-x--------|-----------------------------------------------|
A|---------x-x-x-----x-x-x-x-x-x--------|-----------------------------------------------|
E|---------x-x-x-----x-x-x-x-x-x--------|-----------------------------------------------|

[Chorus 2]

Guitar 1:

e|--8--8--8--8--8--8--8--8--8--8--8--8--8--8--8--8---|
B|--12-12-12-12-12-12-12-12-12-12-12-12-12-12-12-12--|
G|---------------------------------------------------|
D|---------------------------------------------------|
A|---------------------------------------------------|
E|---------------------------------------------------|

e|--8--8--8--8--8--8--8--8--8--8-----7----10----11--|
B|--12-12-12-12-12-12-12-12-12-12-10---13----15-----|
G|--------------------------------------------------|
D|--------------------------------------------------|
A|--------------------------------------------------|
E|--------------------------------------------------|

e|--13-13-13-13-13-13-13-13-13-13-13-13-13-13-13-13--|
B|--17-17-17-17-17-17-17-17-17-17-17-17-17-17-17-17--|
G|---------------------------------------------------|
D|---------------------------------------------------|
A|---------------------------------------------------|
E|---------------------------------------------------|

e|--15-15-15-15-15-15-15-15-15-15-15-15-15-15-15-15--|
B|--18-18-18-18-18-18-18-18-18-18-18-18-18-18-18-18--|
G|---------------------------------------------------|
D|---------------------------------------------------|
A|---------------------------------------------------|
E|---------------------------------------------------|

e|--14-14-14-14-14-14-14-14-14-14-14-14-14-14-14-14--|
B|--x--x--x--x--x--x--x--x--x--x--x--x--x--x--x--x---|
G|--11-11-11-11-11-11-11-11-11-11-11-11-11-11-11-11--|
D|---------------------------------------------------|
A|---------------------------------------------------|
E|---------------------------------------------------|

e|--15-15-15-15-15-15-15-15-15-15-15-15-15-15-15-15--|
B|--x--x--x--x--x--x--x--x--x--x--x--x--x--x--x--x---|
G|--12-12-12-12-12-12-12-12-12-12-12-12-12-12-12-12--|
D|---------------------------------------------------|
A|---------------------------------------------------|
E|---------------------------------------------------|

Guitar 2:

e|--8-8-8-101010\8-8-8-8-8-8-12---10-10-10-10\8-8-8-8-7-7-101010\8-8-8-8-7-7-8--|
B|--x-x-x-x-x-x--x-x-x-x-x-x-x----x--x--x--x--x-x-x-x-x-x-x-x-x--x-x-x-x-x-x-x--|
G|--5-5-5-7-7-7-\5-5-5-5-5-5-9----7--7--7--7-\5-5-5-5-4-4-7-7-7-\5-5-5-5-4-4-5--|
D|------------------------------------------------------------------------------|
A|------------------------------------------------------------------------------|
E|------------------------------------------------------------------------------|
    
e|--8-8-8-10-8-8-8-8-8-8-8-12-10-10-10-10-10\8-8-8-8-7-7-10-10\8-8-8-8-7-7----|
B|--x-x-x-x--x-x-x-x-x-x-x-x--x--x--x--x--x--x-x-x-x-x-x-x--x--x-x-x-x-x-x----|
G|--5-5-5-7--5-5-5-5-5-5-5-9--7--7--7--7--7-\5-5-5-5-4-4-7--7-\5-5-5-5-4-4----|
D|----------------------------------------------------------------------------|
A|----------------------------------------------------------------------------|
E|----------------------------------------------------------------------------|

e|--14-14-14-14-14-14-14-14-14-14-14-14-14-14-14-14--|
B|--x--x--x--x--x--x--x--x--x--x--x--x--x--x--x--x---|
G|--11-11-11-11-11-11-11-11-11-11-11-11-11-11-11-11--|
D|---------------------------------------------------|
A|---------------------------------------------------|(x2)
E|---------------------------------------------------|

[Instrumental 2]

Guitar 1:

e|------------------------------------------------------------------------|
B|----13-13-13-13-13-13-13------14----13-13----13------14----13-13----13--|
G|----16-16-16-16-16-16-16---12----12-------12------12----12-------12-----|
D|------------------------------------------------------------------------|
A|------------------------------------------------------------------------|
E|------------------------------------------------------------------------|

Guitar 2:

e|-------------------------|
B|---14-14-13-13-13-13-13--|
G|---14-14-14-14-14-14-14--|
D|-------------------------|
A|-------------------------|
E|-------------------------|

e|---------------------------|
B|--14-14-14-13-13-13-13-13--|
G|--14-14-14-14-14-14-14-14--|
D|---------------------------|
A|---------------------------|(x2)
E|---------------------------|

e|-------------------------------|
B|--14-14-14-13-13-13-14---13~---|
G|--14-14-14-14-14-14-14---14~---|
D|-------------------------------|
A|-------------------------------|
E|-------------------------------|

[Bridge]

Guitar 1 (piano):

e|--15--------------------|
B|-----15------15---------|
G|--------16--------15----|
D|------------------------|
A|------------------------|(x6)
E|------------------------|

Guitar 2 (comes in at end):

e|---------------------------|
B|----------13----13----13~--|
G|----14-------14----14------|
D|-------14------------------|
A|---------------------------|
E|---------------------------|

[Chorus 3]

Guitar 1:

e|--8--8--8--8--8--8--8--8--8--8--8--8--8--8--8--8---|
B|--12-12-12-12-12-12-12-12-12-12-12-12-12-12-12-12--|
G|---------------------------------------------------|
D|---------------------------------------------------|
A|---------------------------------------------------|
E|---------------------------------------------------|

e|--8--8--8--8--8--8--8--8--8--8--7--7-----10----11--|
B|--12-12-12-12-12-12-12-12-12-12-10-10-13----15-----|
G|---------------------------------------------------|
D|---------------------------------------------------|
A|---------------------------------------------------|
E|---------------------------------------------------|

e|--13-13-13-13-13-13-13-13-13-13-13-13-13-13-13-13--|
B|--17-17-17-17-17-17-17-17-17-17-17-17-17-17-17-17--|
G|---------------------------------------------------|
D|---------------------------------------------------|
A|---------------------------------------------------|
E|---------------------------------------------------|

e|--15-15-15-15-15-15-15-15-15-15-15-15-15-15-15-15--|
B|--18-18-18-18-18-18-18-18-18-18-18-18-18-18-18-18--|
G|---------------------------------------------------|
D|---------------------------------------------------|
A|---------------------------------------------------|
E|---------------------------------------------------|

Guitar 2:

e|--8-8-8-101010\8-8-8-8-8-12-12\10-10-10-10-10\8-8-8-8-7-7-101010\8-8-8-8-7-7-88--|
B|--x-x-x-x-x-x--x-x-x-x-x-x--x--x--x--x--x--x--x-x-x-x-x-x-x-x-x--x-x-x-x-x-x-xx--|
G|--5-5-5-7-7-7-\5-5-5-5-5-9--9-\7--7--7--7--7-\5-5-5-5-4-4-7-7-7-\5-5-5-5-4-4-55--|
D|---------------------------------------------------------------------------------|
A|---------------------------------------------------------------------------------|
E|---------------------------------------------------------------------------------|
    
e|--8-8-8-10-10\8-8-888-8-12-12\10-10-10-10-10\8-8-8-8-7-7-101010\8-8-8-8-7-7----|
B|--x-x-x-x--x--x-x-xxx-x-x--x--x--x--x--x--x--x-x-x-x-x-x-x-x-x--x-x-x-x-x-x----|
G|--5-5-5-7--7-\5-5-555-5-9--9-\7--7--7--7--7-\5-5-5-5-4-4-7-7-7-\5-5-5-5-4-4----|
D|-------------------------------------------------------------------------------|
A|-------------------------------------------------------------------------------|
E|-------------------------------------------------------------------------------|

Guitars 1+2:

e|--14-14-15-15-14-14-15-15-14-14-15-15-14-14-15~---|
B|--x--x--x--x--x--x--x--x--x--x--x--x--x--x--x-----|
G|--11-11-12-12-11-11-12-12-11-11-12-12-11-11-12~---|
D|--------------------------------------------------|
A|--------------------------------------------------|
E|--------------------------------------------------|

[Chorus 4]

Guitar 1:

e|--8--8--8--8--8--8--8--8--8--8--8--8--8--8--8--8---|
B|--12-12-12-12-12-12-12-12-12-12-12-12-12-12-12-12--|
G|---------------------------------------------------|
D|---------------------------------------------------|
A|---------------------------------------------------|
E|---------------------------------------------------|

e|--8--8--8--8--8--8--8--8--8--8--7--7-----10----11--|
B|--12-12-12-12-12-12-12-12-12-12-10-10-13----15-----|
G|---------------------------------------------------|
D|---------------------------------------------------|
A|---------------------------------------------------|
E|---------------------------------------------------|

e|--13-13-13-13-13-13-13-13-13-13-13-13-13-13-13-13--|
B|--17-17-17-17-17-17-17-17-17-17-17-17-17-17-17-17--|
G|---------------------------------------------------|
D|---------------------------------------------------|
A|---------------------------------------------------|
E|---------------------------------------------------|

e|--15-15-15-15-15-15-15-15-15-15-15-15-15-15-15-15--|
B|--18-18-18-18-18-18-18-18-18-18-18-18-18-18-18-18--|
G|---------------------------------------------------|
D|---------------------------------------------------|
A|---------------------------------------------------|
E|---------------------------------------------------|

e|---------------------------8--8--8--8--8--8--8---|
B|-------14----13-13----13---12-12-12-12-12-12-12--|
G|----12----12-------12----------------------------|
D|-------------------------------------------------|
A|-------------------------------------------------|
E|-------------------------------------------------|

e|--8--8--8--8--8--8--8--8--8--8--7--7--5-10----10--|
B|--12-12-12-12-12-12-12-12-12-12-10-10-8----13-----|
G|--------------------------------------------------|
D|--------------------------------------------------|
A|--------------------------------------------------|
E|--------------------------------------------------|

e|--13-13-13-13-13-13-13-13-13-13-13-13-13-13-13-13--|
B|--17-17-17-17-17-17-17-17-17-17-17-17-17-17-17-17--|
G|---------------------------------------------------|
D|---------------------------------------------------|
A|---------------------------------------------------|
E|---------------------------------------------------|

e|--15-15-15-15-15-15-15-15-15-15-15-15-15-13-13-13--|
B|--18-18-18-18-18-18-18-18-18-18-18-18-18-17-17-17--|
G|---------------------------------------------------|
D|---------------------------------------------------|
A|---------------------------------------------------|
E|---------------------------------------------------|

e|--17~----------------8--8--8--8--8--8--8---|
B|--20~----------------12-12-12-12-12-12-12--|
G|-------------------------------------------|
D|-------------------------------------------|
A|-------------------------------------------|
E|-------------------------------------------|

e|--8--8--8--8--8--8--8--8--8--8--7--7-----10----11--|
B|--12-12-12-12-12-12-12-12-12-12-10-10-13----15-----|
G|---------------------------------------------------|
D|---------------------------------------------------|
A|---------------------------------------------------|
E|---------------------------------------------------|

e|--13~-----------------------------17-17~--|
B|--17~----------------------19-------------|
G|------------------------------------------|
D|------------------------------------------|
A|------------------------------------------|
E|------------------------------------------|

Guitar 2:

e|--8-888-10-10\8-8-8-8-8-8-12\10-10-10-101010\8-8-8-8-7-7-10-10\8-8-8-8-7-7-88--|
B|--x-xxx-x--x--x-x-x-x-x-x-x--x--x--x--x-x-x--x-x-x-x-x-x-x--x--x-x-x-x-x-x-xx--|
G|--5-555-7--7-\5-5-5-5-5-5-9-\7-\7--7--7-7-7-\5-5-5-5-4-4-7--7-\5-5-5-5-4-4-55--|
D|-------------------------------------------------------------------------------|
A|-------------------------------------------------------------------------------|
E|-------------------------------------------------------------------------------|
    
e|--8-8-8-10-10\8-8-8-8-8-12-12\10-10-10-101010\8-8-8-8-7-7-101010\8-8-8-8-7-7-7--|
B|--x-x-x-x--x--x-x-x-x-x-x--x--x--x--x--x-x-x--x-x-x-x-x-x-x-x-x--x-x-x-x-x-x-x--|
G|--5-5-5-7--7-\5-5-5-5-5-9--9-\7--7--7--7-7-7-\5-5-5-5-4-4-7-7-7-\5-5-5-5-4-4-4--|
D|--------------------------------------------------------------------------------|
A|--------------------------------------------------------------------------------|
E|--------------------------------------------------------------------------------|

e|--8-8-8-10-10\8-8-8-8-8-8---12-101010-101010\8-8-8-8-7-7-101010\8-8-8-8-7-7-88--|
B|--x-x-x-x--x--x-x-x-x-x-x---x--x-x-x--x-x-x--x-x-x-x-x-x-x-x-x--x-x-x-x-x-x-xx--|
G|--5-5-5-7--7-\5-5-5-5-5-5---9--7-7-7--7-7-7-\5-5-5-5-4-4-7-7-7-\5-5-5-5-4-4-55--|
D|--------------------------------------------------------------------------------|
A|--------------------------------------------------------------------------------|
E|--------------------------------------------------------------------------------|
    
e|--8-8-8-101010\8-8-8-8-888-12---101010-10-10\8-8-8-8-7-7-101010\8-8-8-8-7-8-8--|
B|--x-x-x-x-x-x--x-x-x-x-xxx-x----x-x-x--x--x--x-x-x-x-x-x-x-x-x--x-x-x-x-x-x-x--|
G|--5-5-5-7-7-7-\5-5-5-5-555-9----7-7-7--7--7-\5-5-5-5-4-4-7-7-7-\5-5-5-5-4-5-5--|
D|-------------------------------------------------------------------------------|
A|-------------------------------------------------------------------------------|
E|-------------------------------------------------------------------------------|
    
e|--7/8-8-10-10\8-8-888-888-12\10-101010-101010\8-8-8-8-7-7-101010\8-8-8-8-7-7-8---|
B|--x-x-x-x--x--x-x-xxx-xxx-x--x--x-x-x--x-x-x--x-x-x-x-x-x-x-x-x--x-x-x-x-x-x-x---|
G|--4/5-5-7--7-\5-5-555-555-9-\7--7-7-7--7-7-7-\5-5-5-5-4-4-7-7-7-\5-5-5-5-4-4-5---|
D|---------------------------------------------------------------------------------|
A|---------------------------------------------------------------------------------|
E|---------------------------------------------------------------------------------|

e|--8/10-10-10-10\8--|
B|--x-x--x--x--x--x--|
G|--5-7--7--7--7-\5--|
D|-------------------|
A|-------------------|
E|-------------------|

Guitar 3:

Plays a C chord near end of final chorus 

***********************
/ - slide up 
\ - slide down
x - mute string
b - bend up
~ - sustain
***********************

            
            
Suggest correction
Creating personal tab
Creating personal tab
You can edit any tab online and save it as your Personal.

You can edit, replace or remove any tab part or add personal notes – all changes will be seen only by you.

Personal tabs can be accessed anytime from any device, even offline.
Learn more »
Give kudos to tab author, rate the tab!
1 2 3 4 5
comments
print report bad tab
guest
You may want to rate the tab now too:
select rating
Wanna post a correction for this tab? Suggest correction