Oops, an error
Loading. Please wait.

Dance The Midwest tab

25 views 1 this week
no commentswrite comment
1 2 3 4 5
3 more votes to show rating
add to favorites
×
Save as Personal and add changes to this tab that will be seen only by you. Learn more ›
×
You can save this tab as Personal to edit and correct it or add notes. All changes will be seen only by you. Learn more »
launch autoscroll
font size
0
reset
how to read this tab
guitar tuner
edit
Autoscroll
slow
fast
+/-
esc
set tempo
stop
Author
Difficulty
Dance the Midwest - guitar tab

[Introduction]

Guitar 1:

e|--12-12-12-12-12-12-12-12-12-12-12-12-12-12-12-12-12-12-12-12-12-12-12-12--|
B|--12-12-12-12-12-12-12-12-12-12-12-12-12-12-12-12-12-12-12-12-12-12-12-12--|
G|--14-14-14-14-14-14-14-14-14-14-14-14-13-13-13-13-13-13-13-13-13-13-13-13--|
D|---------------------------------------------------------------------------|
A|---------------------------------------------------------------------------|
E|---------------------------------------------------------------------------|
 |                                                                           |(x2)
e|--12-12-12-12-12-12-12-12-12-12-12-12-12-12-12-12-12-12-12-12-12-12-12-12--|
B|--12-12-12-12-12-12-12-12-12-12-12-12-12-12-12-12-12-12-12-12-12-12-12-12--|
G|--16-16-16-16-16-16-16-16-16-16-16-16-15-15-15-15-15-15-15-15-15-15-15-15--|
D|---------------------------------------------------------------------------|
A|---------------------------------------------------------------------------|
E|---------------------------------------------------------------------------|

Guitar 2:

e|--12-12-12-12-12-12-12-12-12-12-12-12-12-12-12-12-12-12-12-12-12-12-12-12--|   
B|--12-12-12-12-12-12-12-12-12-12-12-12-12-12-12-12-12-12-12-12-12-12-12-12--|
G|---------------------------------------------------------------------------|
D|---------------------------------------------------------------------------|
A|---------------------------------------------------------------------------|
E|---------------------------------------------------------------------------|

e|--12-12-12-12-12-12-12-12-12-12-12-12-12-12-12-12-12-12-12-12-12-12-x-x--|   
B|--12-12-12-12-12-12-12-12-12-12-12-12-12-12-12-12-12-12-12-12-12-12-x-x--|
G|-------------------------------------------------------------------------|
D|-------------------------------------------------------------------------|
A|-------------------------------------------------------------------------|
E|-------------------------------------------------------------------------|

e|--14-14-14-14-14-14-14-14-14-14-x-x-14-14-14-14-14-14-14-14-14-14-x-x--|
B|--14-14-14-14-14-14-14-14-14-14-x-x-14-14-14-14-14-14-14-14-14-14-x-x--|
G|-----------------------------------------------------------------------|
D|-----------------------------------------------------------------------|
A|-----------------------------------------------------------------------|
E|-----------------------------------------------------------------------|

e|--14-14-14-14-14-14-14-14-14-14-14-14-14-14-14-14-14-14-14-14-14-14-14-14--|
B|--14-14-14-14-14-14-14-14-14-14-14-14-14-14-14-14-14-14-14-14-14-14-14-14--|
G|---------------------------------------------------------------------------|
D|---------------------------------------------------------------------------|
A|---------------------------------------------------------------------------|
E|---------------------------------------------------------------------------|

[Verse 1]

Guitar 1:

e|---------------------------------------------------------------------------|
B|--10-10-10-10-10-10-10-10-10-10-10-10-9--9--9--9--9--9--9--9--9--9--9--9---|
G|--13-13-13-13-13-13-13-13-13-13-13-13-11-11-11-11-11-11-11-11-11-11-11-11--|
D|---------------------------------------------------------------------------|
A|---------------------------------------------------------------------------|
E|---------------------------------------------------------------------------| 
 |                                                                           |(x4) 
e|---------------------------------------------------|-----------------------|
B|--7-7-7-7-7-7-7-7-7-7-7-7-7-7-7-7-7-7-7-7-7-7-7-7--|
G|--9-9-9-9-9-9-8-8-8-8-8-8-9-9-9-9-9-9-9-9-9-9-9-9--|
D|---------------------------------------------------|                          
A|---------------------------------------------------|                          
E|---------------------------------------------------|

^guitar 3 enters after 2 repetitions^

Guitar 2:

e|--12-12-12-12-12-12-12-12-12-12-12-12-12-12-12-12-12-12-12-12-12-12-12-12--|
B|--12-12-12-12-12-12-12-12-12-12-12-12-12-12-12-12-12-12-12-12-12-12-12-12--|
G|---------------------------------------------------------------------------|
D|---------------------------------------------------------------------------|
A|---------------------------------------------------------------------------|
E|---------------------------------------------------------------------------|
                                                                            
e|--12-12-12-12-12-12-x-4-4-4-4-4-4-4-4-4-4-4-4-4-4-4-4-4--|
B|--12-12-12-12-12-12-x-7-7-7-7-7-7-7-7-7-7-7-7-7-7-7-7-7--|
G|---------------------------------------------------------|
D|---------------------------------------------------------|
A|---------------------------------------------------------|
E|---------------------------------------------------------|

e|--12-12-12-12-12-12-12-12-12-12-12-12-12-12-12-12-12-12-12-12-12-12-12-12--|
B|--12-12-12-12-12-12-12-12-12-12-12-12-12-12-12-12-12-12-12-12-12-12-12-12--|
G|---------------------------------------------------------------------------|
D|---------------------------------------------------------------------------|
A|---------------------------------------------------------------------------|
E|---------------------------------------------------------------------------|
 |                                                                           |(x3)
e|--4-4-4-4-4-4-4-4-4-4-4-4-4-4-4-4-4-4-4-4-4-4-4-4--|-----------------------|
B|--7-7-7-7-7-7-7-7-7-7-7-7-7-7-7-7-7-7-7-7-7-7-7-7--|
G|---------------------------------------------------|
D|---------------------------------------------------|
A|---------------------------------------------------|
E|---------------------------------------------------|

Guitar 3:

e|--14--|
B|--17--|<- randomly arpeggiate this 
G|--18--|
D|------|
A|------|
E|------|

e.g.

e|---------14----------14-----14--|
B|--------------17--------17------|
G|--18----------------------------|
D|--------------------------------|
A|--------------------------------|
E|--------------------------------|

[Pre-chorus 1]

Guitar 1:

e|------------------------------------------------------------------------|
B|--10-10-10-10-10-10-10/12-12-12-12-12-12-12-12-12-12-12-12-12-12-12-12--|
G|--9--9--9--9--9--9--9//11-11-11-11-11-11-11-11-11-11-11-11-11-11-11-11--|
D|--7--7--7--7--7--7--7//9--9--9--9--9--9--9--9--9--9--9--9--9--9--9--9---|
A|------------------------------------------------------------------------|<- Bend chords as you strum
E|------------------------------------------------------------------------|

Guitar 2:

e|------------------------------------------------------------------------|
B|--10-10-10-10-10-10-10-10-10-10-10-10-10-10-10-10-10-10-10-10-10-10-10--|
G|--9--9--9--9--9--9--9--9--9--9--9--9--9--9--9--9--9--9--9--9--9--9--9---|
D|--7--7--7--7--7--7--7--7--7--7--7--7--7--7--7--7--7--7--7--7--7--7--7---|
A|------------------------------------------------------------------------|
E|------------------------------------------------------------------------|

Guitar 3:

e|--14--|
B|--17--|<- randomly arpeggiate this 
G|--18--|
D|------|
A|------|
E|------|

[Chorus 1]

Guitar 1:

e|--4-----2-----0-----------------------------------2-----0------------------------------------------|
B|-------------------/4-----4~---------------------------------/4-----------4~----------4~----0------|
G|--------------------------4~----------------------------------------------4~----------5~-----------|
D|---------------------------------------------------------------------------------------------------|
A|---------------------------------------------------------------------------------------------------|
E|---------------------------------------------------------------------------------------------------|

e|--4-----2-----0-----------------------------------2-----0------------------------------------------|
B|-------------------/4-----4~---------------------------------/4-----------4~----------4~-----------|
G|--------------------------4~----------------------------------------------4~----------5~-----------|
D|---------------------------------------------------------------------------------------------------|
A|---------------------------------------------------------------------------------------------------|
E|---------------------------------------------------------------------------------------------------|

e|---------------------------------------------------------------------------------------------------|
B|---------------------------------------------------------------------------------------------------|
G|---------------------------------------------------------------------------------------------------|
D|--12-----------12-------------7------------7------------4~-----------------------------------------|
A|--------16------------16------------11-----------11-----7~-----------------------------------------|
E|---------------------------------------------------------------------------------------------------|

Guitar 2:

e|--4-4-4-4-4-4-4-4-4-4-4-4-7-7-7-7-7-7-7-7-7-7-7-7-4-4-4-4-4-4-4-4-4-4-4-4-4-4-4-4-4-4-5-5-5-5-5-5--|
B|--5-5-5-5-5-5-5-5-5-5-5-5-9-9-9-9-9-9-9-9-9-9-9-9-4-4-4-4-4-4-4-4-4-4-4-4-4-4-4-4-4-4-5-5-5-5-5-5--|
G|--6-6-6-6-6-6-6-6-6-6-6-6-9-9-9-9-9-9-9-9-9-9-9-9-4-4-4-4-4-4-4-4-4-4-4-4-4-4-4-4-4-4-6-6-6-6-6-6--|
D|--6-6-6-6-6-6-6-6-6-6-6-6-9-9-9-9-9-9-9-9-9-9-9-9-6-6-6-6-6-6-6-6-6-6-6-6-6-6-6-6-6-6-7-7-7-7-7-7--|
A|--4-4-4-4-4-4-4-4-4-4-4-4-7-7-7-7-7-7-7-7-7-7-7-7-6-6-6-6-6-6-6-6-6-6-6-6-6-6-6-6-6-6-7-7-7-7-7-7--|
E|--------------------------------------------------4-4-4-4-4-4-4-4-4-4-4-4-4-4-4-4-4-4-5-5-5-5-5-5--|

e|--4-4-4-4-4-4-4-4-4-4-4-4-7-7-7-7-7-7-7-7-7-7-7-7-4-4-4-4-4-4-4-4-4-4-4-4-2-2-2-2-2-2-3-3-3-3-3-3--|
B|--5-5-5-5-5-5-5-5-5-5-5-5-9-9-9-9-9-9-9-9-9-9-9-9-4-4-4-4-4-4-4-4-4-4-4-4-4-4-4-4-4-4-5-5-5-5-5-5--|
G|--6-6-6-6-6-6-6-6-6-6-6-6-9-9-9-9-9-9-9-9-9-9-9-9-4-4-4-4-4-4-4-4-4-4-4-4-4-4-4-4-4-4-5-5-5-5-5-5--|
D|--6-6-6-6-6-6-6-6-6-6-6-6-9-9-9-9-9-9-9-9-9-9-9-9-6-6-6-6-6-6-6-6-6-6-6-6-4-4-4-4-4-4-5-5-5-5-5-5--|
A|--4-4-4-4-4-4-4-4-4-4-4-4-7-7-7-7-7-7-7-7-7-7-7-7-6-6-6-6-6-6-6-6-6-6-6-6-2-2-2-2-2-2-3-3-3-3-3-3--|
E|--------------------------------------------------4-4-4-4-4-4-4-4-4-4-4-4--------------------------|

e|--5-5-5-5-5-5-5-5-5-5-5-5-0-0-0-0-0-0-0-0-0-0-0-0-0~-----------------------------------------------|
B|--7-7-7-7-7-7-7-7-7-7-7-7-2-2-2-2-2-2-2-2-2-2-2-2-0~-----------------------------------------------|
G|--7-7-7-7-7-7-7-7-7-7-7-7-2-2-2-2-2-2-2-2-2-2-2-2-1~-----------------------------------------------|
D|--7-7-7-7-7-7-7-7-7-7-7-7-2-2-2-2-2-2-2-2-2-2-2-2-2~-----------------------------------------------|
A|--5-5-5-5-5-5-5-5-5-5-5-5-0-0-0-0-0-0-0-0-0-0-0-0-2~-----------------------------------------------|
E|--------------------------------------------------0~-----------------------------------------------|

[Instrumental]

Guitar 1:

e|--12-12-12-12-12-12-12-12-12-12-12-12-12-12-12-12-12-12-12-12-12-12-12-12--|
B|--12-12-12-12-12-12-12-12-12-12-12-12-12-12-12-12-12-12-12-12-12-12-12-12--|
G|--14-14-14-14-14-14-14-14-14-14-14-14-13-13-13-13-13-13-13-13-13-13-13-13--|
D|---------------------------------------------------------------------------|
A|---------------------------------------------------------------------------|
E|---------------------------------------------------------------------------|
 |                                                                           |(x2)
e|--12-12-12-12-12-12-12-12-12-12-12-12-12-12-12-12-12-12-12-12-12-12-12-12--|
B|--12-12-12-12-12-12-12-12-12-12-12-12-12-12-12-12-12-12-12-12-12-12-12-12--|
G|--16-16-16-16-16-16-16-16-16-16-16-16-15-15-15-15-15-15-15-15-15-15-15-15--|
D|---------------------------------------------------------------------------|
A|---------------------------------------------------------------------------|
E|---------------------------------------------------------------------------|

Guitar 2:

e|--14-14-14-14-14-14-14-14-14-14-x-x-14-14-14-14-14-14-14-14-14-14-x-x--|
B|--14-14-14-14-14-14-14-14-14-14-x-x-14-14-14-14-14-14-14-14-14-14-x-x--|
G|-----------------------------------------------------------------------|
D|-----------------------------------------------------------------------|
A|-----------------------------------------------------------------------|
E|-----------------------------------------------------------------------|

e|--14-14-14-14-14-14-14-14-14-14-14-14-14-14-14-14-14-14-14-14-14-14-x-x--|
B|--14-14-14-14-14-14-14-14-14-14-14-14-14-14-14-14-14-14-14-14-14-14-x-x--|
G|-------------------------------------------------------------------------|
D|-------------------------------------------------------------------------|
A|-------------------------------------------------------------------------|
E|-------------------------------------------------------------------------|

e|--14-14-14-14-14-14-16-16-16-14-x-x-14-14-14-14-14-14-16-16-16-14-x-x--|
B|--14-14-14-14-14-14-14-14-14-14-x-x-14-14-14-14-14-14-14-14-14-14-x-x--|
G|-----------------------------------------------------------------------|
D|-----------------------------------------------------------------------|
A|-----------------------------------------------------------------------|
E|-----------------------------------------------------------------------|

e|--14-14-14-14-14-14-14-14-14-14-14-14-14-14-14-14-14-14-14\\\\---------|
B|--14-14-14-14-14-14-14-14-14-14-14-14-14-14-14-14-14-14-14\\\\---------|
G|-----------------------------------------------------------------------|
D|-----------------------------------------------------------------------|
A|-----------------------------------------------------------------------|
E|-----------------------------------------------------------------------|

[Verse 2]

Guitar 1:

e|---------------------------------------------------------------------------|
B|--10-10-10-10-10-10-10-10-10-10-10-10-9--9--9--9--9--9--9--9--9--9--9--9---|
G|--13-13-13-13-13-13-13-13-13-13-13-13-11-11-11-11-11-11-11-11-11-11-11-11--|
D|---------------------------------------------------------------------------|
A|---------------------------------------------------------------------------|
E|---------------------------------------------------------------------------| 
 |                                                                           |(x4) 
e|---------------------------------------------------|-----------------------|
B|--7-7-7-7-7-7-7-7-7-7-7-7-7-7-7-7-7-7-7-7-7-7-7-7--|
G|--9-9-9-9-9-9-8-8-8-8-8-8-9-9-9-9-9-9-9-9-9-9-9-9--|
D|---------------------------------------------------|                          
A|---------------------------------------------------|                          
E|---------------------------------------------------|

Guitar 2: 

e|--12-12-12-12-12-12-12-12-12-12-12-12-12-12-12-12-12-12-12-12-12-12-12-12--|
B|--12-12-12-12-12-12-12-12-12-12-12-12-12-12-12-12-12-12-12-12-12-12-12-12--|
G|---------------------------------------------------------------------------|
D|---------------------------------------------------------------------------|
A|---------------------------------------------------------------------------|
E|---------------------------------------------------------------------------|
 |                                                                           |(x4)
e|--4-4-4-4-4-4-4-4-4-4-4-4-4-4-4-4-4-4-4-4-4-4-4-4--|-----------------------|
B|--7-7-7-7-7-7-7-7-7-7-7-7-7-7-7-7-7-7-7-7-7-7-7-7--|
G|---------------------------------------------------|
D|---------------------------------------------------|
A|---------------------------------------------------|
E|---------------------------------------------------|

Guitar 3:

e|--14--|
B|--17--|<- randomly arpeggiate this 
G|--18--|
D|------|
A|------|
E|------|

[Pre-chorus 2]

Guitar 1:

e|------------------------------------------------------------------------|
B|--10-10-10-10-10-10-10/12-12-12-12-12-12-12-12-12-12-12-12-12-12-12-12--|
G|--9--9--9--9--9--9--9//11-11-11-11-11-11-11-11-11-11-11-11-11-11-11-11--|
D|--7--7--7--7--7--7--7//9--9--9--9--9--9--9--9--9--9--9--9--9--9--9--9---|
A|------------------------------------------------------------------------|<- Bend chords as you strum
E|------------------------------------------------------------------------|

Guitar 2:

e|------------------------------------------------------------------------|
B|--10-10-10-10-10-10-10-10-10-10-10-10-10-10-10-10-10-10-10-10-10-10-10--|
G|--9--9--9--9--9--9--9--9--9--9--9--9--9--9--9--9--9--9--9--9--9--9--9---|
D|--7--7--7--7--7--7--7--7--7--7--7--7--7--7--7--7--7--7--7--7--7--7--7---|
A|------------------------------------------------------------------------|
E|------------------------------------------------------------------------|

Guitar 3:

e|--14--|
B|--17--|<- randomly arpeggiate this 
G|--18--|
D|------|
A|------|
E|------|

[Chorus 2]

Guitar 1: 

e|--4-----2-----0-----------------------------------2-----0------------------------------------------|
B|-------------------/4-----4~----------------0----------------/4-----4-----4~----------4~----0------|
G|--------------------------4~----------------------------------------4-----4~----------5~-----------|
D|---------------------------------------------------------------------------------------------------|
A|---------------------------------------------------------------------------------------------------|
E|---------------------------------------------------------------------------------------------------|

e|--4-----2-----0-----------------------------------2-----0------------------------------------------|
B|-------------------/4-----4~---------------------------------/4-----4-----4~----------4~----0------|
G|--------------------------4~----------------------------------------4-----4~----------5~-----------|
D|---------------------------------------------------------------------------------------------------|
A|---------------------------------------------------------------------------------------------------|
E|---------------------------------------------------------------------------------------------------|

e|--4-----2-----0------------------------------0----2-----0------------------------------------------|
B|-------------------/4-----4~---------------------------------/4-----4-----4~----------4~-----------|
G|--------------------------4~----------------------------------------4-----4~----------5~-----------|
D|---------------------------------------------------------------------------------------------------|
A|---------------------------------------------------------------------------------------------------|
E|---------------------------------------------------------------------------------------------------|

Guitar 2:

e|--4-4-4-4-4-4-4-4-4-4-4-4-7-7-7-7-7-7-7-7-7-7-7-7-4-4-4-4-4-4-4-4-4-4-4-4-4-4-4-4-4-4-5-5-5-5-5-5--|
B|--5-5-5-5-5-5-5-5-5-5-5-5-9-9-9-9-9-9-9-9-9-9-9-9-4-4-4-4-4-4-4-4-4-4-4-4-4-4-4-4-4-4-5-5-5-5-5-5--|
G|--6-6-6-6-6-6-6-6-6-6-6-6-9-9-9-9-9-9-9-9-9-9-9-9-4-4-4-4-4-4-4-4-4-4-4-4-4-4-4-4-4-4-6-6-6-6-6-6--|
D|--6-6-6-6-6-6-6-6-6-6-6-6-9-9-9-9-9-9-9-9-9-9-9-9-6-6-6-6-6-6-6-6-6-6-6-6-6-6-6-6-6-6-7-7-7-7-7-7--|
A|--4-4-4-4-4-4-4-4-4-4-4-4-7-7-7-7-7-7-7-7-7-7-7-7-6-6-6-6-6-6-6-6-6-6-6-6-6-6-6-6-6-6-7-7-7-7-7-7--|
E|--------------------------------------------------4-4-4-4-4-4-4-4-4-4-4-4-4-4-4-4-4-4-5-5-5-5-5-5--|

e|--4-4-4-4-4-4-4-4-4-4-4-4-7-7-7-7-7-7-7-7-7-7-7-7-4-4-4-4-4-4-4-4-4-4-4-4-2-2-2-2-2-2-3-3-3-3-3-3--|
B|--5-5-5-5-5-5-5-5-5-5-5-5-9-9-9-9-9-9-9-9-9-9-9-9-4-4-4-4-4-4-4-4-4-4-4-4-4-4-4-4-4-4-5-5-5-5-5-5--|
G|--6-6-6-6-6-6-6-6-6-6-6-6-9-9-9-9-9-9-9-9-9-9-9-9-4-4-4-4-4-4-4-4-4-4-4-4-4-4-4-4-4-4-5-5-5-5-5-5--|
D|--6-6-6-6-6-6-6-6-6-6-6-6-9-9-9-9-9-9-9-9-9-9-9-9-6-6-6-6-6-6-6-6-6-6-6-6-4-4-4-4-4-4-5-5-5-5-5-5--|
A|--4-4-4-4-4-4-4-4-4-4-4-4-7-7-7-7-7-7-7-7-7-7-7-7-6-6-6-6-6-6-6-6-6-6-6-6-2-2-2-2-2-2-3-3-3-3-3-3--|
E|--------------------------------------------------4-4-4-4-4-4-4-4-4-4-4-4--------------------------|

e|--4-4-4-4-4-4-4-4-4-4-4-4-7-7-7-7-7-7-7-7-7-7-7-7-4-4-4-4-4-4-4-4-4-4-4-4-0-0-0-0-0-0-2-2-2-2-2-2--|
B|--5-5-5-5-5-5-5-5-5-5-5-5-9-9-9-9-9-9-9-9-9-9-9-9-4-4-4-4-4-4-4-4-4-4-4-4-2-2-2-2-2-2-4-4-4-4-4-4--|
G|--6-6-6-6-6-6-6-6-6-6-6-6-9-9-9-9-9-9-9-9-9-9-9-9-4-4-4-4-4-4-4-4-4-4-4-4-2-2-2-2-2-2-4-4-4-4-4-4--|
D|--6-6-6-6-6-6-6-6-6-6-6-6-9-9-9-9-9-9-9-9-9-9-9-9-6-6-6-6-6-6-6-6-6-6-6-6-2-2-2-2-2-2-4-4-4-4-4-4--|
A|--4-4-4-4-4-4-4-4-4-4-4-4-7-7-7-7-7-7-7-7-7-7-7-7-6-6-6-6-6-6-6-6-6-6-6-6-0-0-0-0-0-0-2-2-2-2-2-2--|
E|--------------------------------------------------4-4-4-4-4-4-4-4-4-4-4-4--------------------------|

[End]

Guitar 1:

e|---------------------------------------------------------------------------------------------------------|
B|---------------------------------------------------------------------------------------------------------|
G|---------------------------------------------------------------------------------------------------------|
D|--12-----------12-------------7------------7------------4~------------------4\2~-------------------------|
A|--------16------------16------------11-----------11-----7~------------------7\6~-------------------------|
E|---------------------------------------------------------------------------------------------------------|

e|---------------------------------------------------------------------------------------------------------|
B|---------------------------------------------------------------------------------------------------------|
G|---------------------------------------------------------------------------------------------------------|
D|--12-----------12-------------7------------7------------4~------------------2~---------------------------|
A|--------16------------16------------11-----------11-----7~------------------6~---------------------------|
E|---------------------------------------------------------------------------------------------------------|

Guitar 2:

e|--5-5-5-5-5-5-5-5-5-5-5-5-0-0-0-0-0-0-0-0-0-0-0-0-0~-----------------------------------------------|
B|--7-7-7-7-7-7-7-7-7-7-7-7-2-2-2-2-2-2-2-2-2-2-2-2-0~-----------------------------------------------|
G|--7-7-7-7-7-7-7-7-7-7-7-7-2-2-2-2-2-2-2-2-2-2-2-2-1~-----------------------------------------------|
D|--7-7-7-7-7-7-7-7-7-7-7-7-2-2-2-2-2-2-2-2-2-2-2-2-2~-----------------------------------------------|
A|--5-5-5-5-5-5-5-5-5-5-5-5-0-0-0-0-0-0-0-0-0-0-0-0-2~-----------------------------------------------|(x2)
E|--------------------------------------------------0~-----------------------------------------------|

******************
/ - slide up
\ - slide down
~ - sustain 
x - mute string
******************

            
            
Suggest correction
Creating personal tab
Creating personal tab
You can edit any tab online and save it as your Personal.

You can edit, replace or remove any tab part or add personal notes – all changes will be seen only by you.

Personal tabs can be accessed anytime from any device, even offline.
Learn more »
Give kudos to tab author, rate the tab!
1 2 3 4 5
comments
print report bad tab
guest
You may want to rate the tab now too:
select rating
Wanna post a correction for this tab? Suggest correction