Oops, an error
Loading. Please wait.

Hats Off To Marriage Baby tab

13 views 3 this week
no commentswrite comment
1 2 3 4 5
3 more votes to show rating
add to favorites
×
Save as Personal and add changes to this tab that will be seen only by you. Learn more ›
×
You can save this tab as Personal to edit and correct it or add notes. All changes will be seen only by you. Learn more »
launch autoscroll
font size
0
reset
how to read this tab
guitar tuner
edit
Autoscroll
slow
fast
+/-
esc
set tempo
stop
Author
Difficulty
Hats Off to Marriage, Baby - guitar tab 

[Intro]
Guitar 1:
e|--3---x-x-x-x-x-x-x-x-3-3---3-----6--6--6--6--6--6--6--6--11-11-11-11-11-11-11-11--|
B|--6---x-x-x-x-x-x-x-x-6-6---6-----10-10-10-10-10-10-10-10-15-15-15-15-15-15-15-15--|
G|-----------------------------------------------------------------------------------|
D|-----------------------------------------------------------------------------------|
A|-----------------------------------------------------------------------------------|
E|-----------------------------------------------------------------------------------|

e|--10---x-x-x-x-x-x-x-x-10-10---10-10---15-15-15-15-15-15-15-15-13-13-13-13-13-13-13-13--|
B|--13---x-x-x-x-x-x-x-x-13-13---13-13---18-18-18-18-18-18-18-18-17-17-17-17-17-17-17-17--|
G|----------------------------------------------------------------------------------------|
D|----------------------------------------------------------------------------------------|
A|----------------------------------------------------------------------------------------|
E|----------------------------------------------------------------------------------------|

Guitar 2:
e|--3---x-x-x-x-x-x-x-x-3-3---3-3---3---3-3-3-3-3-3-3---3-3-3-3-3-3--|
B|--3---x-x-x-x-x-x-x-x-3-3---3-3---3---3-3-3-3-3-3-3---3-3-3-3-3-3--|
G|--3---x-x-x-x-x-x-x-x-3-3---3-3---3---3-3-3-3-3-3-3---3-3-3-3-3-3--|
D|--5---x-x-x-x-x-x-x-x-5-5---5-5---5---5-5-5-5-5-5-5---5-5-5-5-5-5--|
A|--5---x-x-x-x-x-x-x-x-5-5---5-5---5---5-5-5-5-5-5-5---5-5-5-5-5-5--|
E|--3---x-x-x-x-x-x-x-x-3-3---3-3---3---3-3-3-3-3-3-3---3-3-3-3-3-3--|

[Instrumental]
Guitar 1:
e|--3---x-x-x-x-x-x-x-x-3-3---3-3---6--6--6--6--6--6--6--6--11-11-11-11-11-11-11-11--|
B|--6---x-x-x-x-x-x-x-x-6-6---6-6---10-10-10-10-10-10-10-10-15-15-15-15-15-15-15-15--|
G|-----------------------------------------------------------------------------------|
D|-----------------------------------------------------------------------------------|
A|-----------------------------------------------------------------------------------|
E|-----------------------------------------------------------------------------------|

e|--10---x-x-x-x-x-x-x-x-10-10---10-10---15-15-15-15-15-15-15-15-13-13-13-13-13-13-13-13--|
B|--13---x-x-x-x-x-x-x-x-13-13---13-13---18-18-18-18-18-18-18-18-17-17-17-17-17-17-17-17--|
G|----------------------------------------------------------------------------------------|
D|----------------------------------------------------------------------------------------|
A|----------------------------------------------------------------------------------------|
E|----------------------------------------------------------------------------------------|

Guitar 2:
e|------x-x-x-x-x-x-x-x----------------------------------------------|
B|------x-x-x-x-x-x-x-x----------------------------------------------|
G|------x-x-x-x-x-x-x-x-------------8---8-8-8-8-8-8-5---5-5-5-5-5-5--|
D|--5---x-x-x-x-x-x-x-x-8-8---8-8---8---8-8-8-8-8-8-5---5-5-5-5-5-5--|
A|--5---x-x-x-x-x-x-x-x-8-8---8-8---6---6-6-6-6-6-6-3---3-3-3-3-3-3--|x2
E|--3---x-x-x-x-x-x-x-x-6-6---6-6------------------------------------|

[Verse 1]
Guitar 1:
e|--16b-16b-16b-16b-16b--|
B|--15b-15b-15b-15b-15b--|
G|--14b-14b-14b-14b-14b--|
D|-----------------------|
A|-----------------------|
E|-----------------------|

e|------3-----3---3----6----6----11----11------------------------------------15----15----13---------|
B|--6-6---6-6---6---10---10---15----15----13b-13b-13b-13b-13b-13b-13b-13b-18----18----17----17\\\\--|
G|--------------------------------------------------------------------------------------------------|
D|--------------------------------------------------------------------------------------------------|
A|--------------------------------------------------------------------------------------------------|
E|--------------------------------------------------------------------------------------------------|

Guitar 2:
e|------x-x-x-x-x-x-x-x-x-x-x-x-x-x-x-x-x-x-x-x-x-x-x-x-x-x-x-x------|
B|------x-x-x-x-x-x-x-x-x-x-x-x-x-x-x-x-x-x-x-x-x-x-x-x-x-x-x-x------|
G|------x-x-x-x-x-x-x-x-x-x-x-x-x-x-x-x-x-x-x-x-x-x-x-x-x-x-x-x------|
D|--5---x-x-x-x-x-x-x-x-x-x-x-x-x-x-x-x-x-x-x-x-x-x-x-x-x-x-x-x-5-5--|
A|--5---x-x-x-x-x-x-x-x-x-x-x-x-x-x-x-x-x-x-x-x-x-x-x-x-x-x-x-x-5-5--|x2
E|--3---x-x-x-x-x-x-x-x-x-x-x-x-x-x-x-x-x-x-x-x-x-x-x-x-x-x-x-x-3-3--|

e|------x-x-x-x-x-x-x-x----------------------------------------------|
B|------x-x-x-x-x-x-x-x----------------------------------------------|
G|------x-x-x-x-x-x-x-x-------------8---8-8-8-8-8-8-5---5-5-5-5-5-5--|
D|--5---x-x-x-x-x-x-x-x-8-8---8-8---8---8-8-8-8-8-8-5---5-5-5-5-5-5--|
A|--5---x-x-x-x-x-x-x-x-8-8---8-8---6---6-6-6-6-6-6-3---3-3-3-3-3-3--|x2
E|--3---x-x-x-x-x-x-x-x-6-6---6-6------------------------------------|

[Chorus 1]
Guitar 1:
e|-------------------------------------------|
B|-------13---------13-------13------13------|
G|--15------15-14------14-12---12-12---------|
D|-------------------------------------------|
A|-------------------------------------------|x2
E|-------------------------------------------|

Guitar 2:
e|--6-----x-6-6-x-x-1-----x-1-1-x-x-3-----x-3-3-x-x-3-----x-3-3-x-x--|
B|--6-----x-6-6-x-x-1-----x-1-1-x-x-4-----x-4-4-x-x-4-----x-4-4-x-x--|
G|--7-----x-7-7-x-x-2-----x-2-2-x-x-5-----x-5-5-x-x-5-----x-5-5-x-x--|
D|--8-----x-8-8-x-x-3-----x-3-3-x-x-5-----x-5-5-x-x-5-----x-5-5-x-x--|
A|--8-----x-8-8-x-x-3-----x-3-3-x-x-3-----x-3-3-x-x-3-----x-3-3-x-x--|
E|--6-----x-6-6-x-x-1-----x-1-1-x-x----------------------------------|

e|--6-----x-6-6-x-x-1-----x-1-1-x-x-3-----x-3-3-x-x-3---3---2---1----|
B|--6-----x-6-6-x-x-1-----x-1-1-x-x-4-----x-4-4-x-x-4---4---3---2----|
G|--7-----x-7-7-x-x-2-----x-2-2-x-x-5-----x-5-5-x-x-5---5---4---3----|
D|--8-----x-8-8-x-x-3-----x-3-3-x-x-5-----x-5-5-x-x-5---5---4---3----|
A|--8-----x-8-8-x-x-3-----x-3-3-x-x-3-----x-3-3-x-x-3---3---2---1----|
E|--6-----x-6-6-x-x-1-----x-1-1-x-x----------------------------------|

[Instrumental]
Guitar 1:
e|--3---x-x-x-x-x-x-x-x-3-3---3-3---6--6--6--6--6--6--6--6--11-11-11-11-11-11-11-11--|
B|--6---x-x-x-x-x-x-x-x-6-6---6-6---10-10-10-10-10-10-10-10-15-15-15-15-15-15-15-15--|
G|-----------------------------------------------------------------------------------|
D|-----------------------------------------------------------------------------------|
A|-----------------------------------------------------------------------------------|
E|-----------------------------------------------------------------------------------|

e|--10---x-x-x-x-x-x-x-x-10-10---10-10---15-15-15-15-15-15-15-15-13-13-13-13-13-13-13-13--|
B|--13---x-x-x-x-x-x-x-x-13-13---13-13---18-18-18-18-18-18-18-18-17-17-17-17-17-17-17-17--|
G|----------------------------------------------------------------------------------------|
D|----------------------------------------------------------------------------------------|
A|----------------------------------------------------------------------------------------|
E|----------------------------------------------------------------------------------------|

Guitar 2:
e|------x-x-x-x-x-x-x-x----------------------------------------------|
B|------x-x-x-x-x-x-x-x----------------------------------------------|
G|------x-x-x-x-x-x-x-x-------------8---8-8-8-8-8-8-5---5-5-5-5-5-5--|
D|--5---x-x-x-x-x-x-x-x-8-8---8-8---8---8-8-8-8-8-8-5---5-5-5-5-5-5--|
A|--5---x-x-x-x-x-x-x-x-8-8---8-8---6---6-6-6-6-6-6-3---3-3-3-3-3-3--|x2
E|--3---x-x-x-x-x-x-x-x-6-6---6-6------------------------------------|

[Verse 2]
Guitar 1:
e|--16b-16b-16b-16b-16b--|
B|--15b-15b-15b-15b-15b--|
G|--14b-14b-14b-14b-14b--|
D|-----------------------|
A|-----------------------|
E|-----------------------|

e|------3-----3---3----6----6----11----11----------------------------15----15----13---------|
B|--6-6---6-6---6---10---10---15----15----13b---13b---13b---13b---18----18----17----17\\\\--|
G|------------------------------------------------------------------------------------------|
D|------------------------------------------------------------------------------------------|
A|------------------------------------------------------------------------------------------|
E|------------------------------------------------------------------------------------------|

Guitar 2:
e|------x-x-x-x-x-x-x-x-x-x-x-x-x-x-x-x-x-x-x-x-x-x-x-x-x-x-x-x------|
B|------x-x-x-x-x-x-x-x-x-x-x-x-x-x-x-x-x-x-x-x-x-x-x-x-x-x-x-x------|
G|------x-x-x-x-x-x-x-x-x-x-x-x-x-x-x-x-x-x-x-x-x-x-x-x-x-x-x-x------|
D|--5---x-x-x-x-x-x-x-x-x-x-x-x-x-x-x-x-x-x-x-x-x-x-x-x-x-x-x-x-5-5--|
A|--5---x-x-x-x-x-x-x-x-x-x-x-x-x-x-x-x-x-x-x-x-x-x-x-x-x-x-x-x-5-5--|x2
E|--3---x-x-x-x-x-x-x-x-x-x-x-x-x-x-x-x-x-x-x-x-x-x-x-x-x-x-x-x-3-3--|

e|------x-x-x-x-x-x-x-x----------------------------------------------|
B|------x-x-x-x-x-x-x-x----------------------------------------------|
G|------x-x-x-x-x-x-x-x-------------8---8-8-8-8-8-8-5---5-5-5-5-5-5--|
D|--5---x-x-x-x-x-x-x-x-8-8---8-8---8---8-8-8-8-8-8-5---5-5-5-5-5-5--|
A|--5---x-x-x-x-x-x-x-x-8-8---8-8---6---6-6-6-6-6-6-3---3-3-3-3-3-3--|x2
E|--3---x-x-x-x-x-x-x-x-6-6---6-6------------------------------------|

[Chorus 2]
Guitar 1:
e|----------------------------------------------|
B|-------13---------13---------13---------13----|
G|--15------15-14------14-12------12-12---------|
D|----------------------------------------------|
A|----------------------------------------------|x2
E|----------------------------------------------|

e|-------------------------------------------|
B|-------11---------9------------------------|
G|--13------13-12------12-10~----------------|
D|-------------------------------------------|
A|-------------------------------------------|x2
E|-------------------------------------------|
  ^guitar 3 enter^

Guitar 2:
e|--6-----x-6-6-x-x-1-----x-1-1-x-x-3-----x-3-3-x-x-3-----x-3-3-x-x--|
B|--6-----x-6-6-x-x-1-----x-1-1-x-x-4-----x-4-4-x-x-4-----x-4-4-x-x--|
G|--7-----x-7-7-x-x-2-----x-2-2-x-x-5-----x-5-5-x-x-5-----x-5-5-x-x--|
D|--8-----x-8-8-x-x-3-----x-3-3-x-x-5-----x-5-5-x-x-5-----x-5-5-x-x--|
A|--8-----x-8-8-x-x-3-----x-3-3-x-x-3-----x-3-3-x-x-3-----x-3-3-x-x--|
E|--6-----x-6-6-x-x-1-----x-1-1-x-x----------------------------------|

e|--6-----x-6-6-x-x-1-----x-1-1-x-x-3-----x-3-3-x-x-3---2---3---4----|
B|--6-----x-6-6-x-x-1-----x-1-1-x-x-4-----x-4-4-x-x-4---3---4---5----|
G|--7-----x-7-7-x-x-2-----x-2-2-x-x-5-----x-5-5-x-x-5---4---5---6----|
D|--8-----x-8-8-x-x-3-----x-3-3-x-x-5-----x-5-5-x-x-5---4---5---6----|
A|--8-----x-8-8-x-x-3-----x-3-3-x-x-3-----x-3-3-x-x-3---2---3---4----|
E|--6-----x-6-6-x-x-1-----x-1-1-x-x----------------------------------|

e|--4-----x-4-4-x-x-6-----x-6-6-x-x-6-----x-6-6-x-x-6-----x-6-6-x-x--|
B|--4-----x-4-4-x-x-8-----x-8-8-x-x-6-----x-6-6-x-x-6-----x-6-6-x-x--|
G|--5-----x-5-5-x-x-8-----x-8-8-x-x-6-----x-6-6-x-x-6-----x-6-6-x-x--|
D|--6-----x-6-6-x-x-8-----x-8-8-x-x-8-----x-8-8-x-x-8-----x-8-8-x-x--|
A|--6-----x-6-6-x-x-6-----x-6-6-x-x-8-----x-8-8-x-x-8-----x-8-8-x-x--|
E|--4-----x-4-4-x-x-----------------6-----x-6-6-x-x-6-----x-6-6-x-x--|

e|--4-----x-4-4-x-x-6-----x-6-6-x-x-6-----x-6-6-x-x-6---6---5---4----|
B|--4-----x-4-4-x-x-8-----x-8-8-x-x-6-----x-6-6-x-x-6---6---5---4----|
G|--5-----x-5-5-x-x-8-----x-8-8-x-x-6-----x-6-6-x-x-6---6---5---4----|
D|--6-----x-6-6-x-x-8-----x-8-8-x-x-8-----x-8-8-x-x-8---8---7---6----|
A|--6-----x-6-6-x-x-6-----x-6-6-x-x-8-----x-8-8-x-x-8---8---7---6----|
E|--4-----x-4-4-x-x-----------------6-----x-6-6-x-x-6---6---5---4----|

Guitar 3:
e|--16----16----16----16----16----16----16----16-----|
B|-----20----20----20----20----20----20----20----20--|
G|---------------------------------------------------|
D|---------------------------------------------------|
A|---------------------------------------------------|x2
E|---------------------------------------------------|

[Instrumental 3]
Guitar 1:
e|--3---x-x-x-x-x-x-x-x-3-3---3-3---6--6--6--6--6--6--6--6--11-11-11-11-11-11-11-11--|
B|--6---x-x-x-x-x-x-x-x-6-6---6-6---10-10-10-10-10-10-10-10-15-15-15-15-15-15-15-15--|
G|-----------------------------------------------------------------------------------|
D|-----------------------------------------------------------------------------------|
A|-----------------------------------------------------------------------------------|
E|-----------------------------------------------------------------------------------|

e|--10---x-x-x-x-x-x-x-x-10-10---10-10---15-15-15-15-15-15-15-15-13-13-13-13-13-13-13-13--|
B|--13---x-x-x-x-x-x-x-x-13-13---13-13---18-18-18-18-18-18-18-18-17-17-17-17-17-17-17-17--|
G|----------------------------------------------------------------------------------------|
D|----------------------------------------------------------------------------------------|
A|----------------------------------------------------------------------------------------|
E|----------------------------------------------------------------------------------------|

Guitar 2:
e|------x-x-x-x-x-x-x-x----------------------------------------------|
B|------x-x-x-x-x-x-x-x----------------------------------------------|
G|------x-x-x-x-x-x-x-x-------------8---8-8-8-8-8-8-5---5-5-5-5-5-5--|
D|--5---x-x-x-x-x-x-x-x-8-8---8-8---8---8-8-8-8-8-8-5---5-5-5-5-5-5--|
A|--5---x-x-x-x-x-x-x-x-8-8---8-8---6---6-6-6-6-6-6-3---3-3-3-3-3-3--|x2
E|--3---x-x-x-x-x-x-x-x-6-6---6-6------------------------------------|

[Bridge part A]
Guitar 1:
e|-------------------------------------------------------------------|
B|--------------------5---5---5---5-6-6-6-6-6-6-6-6-6-6-6-6-6-6-6-6--|
G|----5---5---5---5-----------------7-7-7-7-7-7-7-7-7-7-7-7-7-7-7-7--|
D|--6---6---6---6---7---7---7---7---8-8-8-8-8-8-8-8-8-8-8-8-8-8-8-8--|
A|-------------------------------------------------------------------|
E|-------------------------------------------------------------------|

e|-----------------------------------|
B|--------------------5---5---5---5--|
G|----5---5---5---5------------------|
D|--6---6---6---6---7---7---7---7----|
A|-----------------------------------|
E|-----------------------------------|

Guitar 2:
e|------------------------------------------------------------------------|
B|----4------------------------------------------------------6------------|
G|------------5---5----10---------10-------8---8---8---8---7---7---7---7--|
D|--6-----6-6---6---10------10-10--------8---8---8---8---8-------8---8----|
A|------------------------------------------------------------------------|
E|------------------------------------------------------------------------|

e|------------------------------------------|
B|------------------------------------------|
G|----5---5---5---5-10-10-10-10-10-10-10----|
D|--6---6---6---6---10-10-10-10-10-10-10----|
A|------------------------------------------|
E|------------------------------------------|

Guitar 3:
e|---------------------------------------------------------------------------|
B|---------------------------------------------------------------------------|
G|---------------------------------------------------------------------------|
D|--6-6-6-6-6-6-6-6-7-7-7-7-7-7-7-7-8-8-8-8-8-8-8-8-10-10-10-10-10-10-10-10--|
A|--x-x-x-x-x-x-x-x-x-x-x-x-x-x-x-x-x-x-x-x-x-x-x-x-x--x--x--x--x--x--x--x---|
E|--4-4-4-4-4-4-4-4-5-5-5-5-5-5-5-5-6-6-6-6-6-6-6-6-8--8--8--8--8--8--8--8---|
                                         
e|-----------------------------------|
B|-----------------------------------|
G|-----------------------------------|
D|--6-6-6-6-6-6-6-6-3-3-3-3-3-3-3-3--|
A|--x-x-x-x-x-x-x-x-x-x-x-x-x-x-x-x--|
E|--4-4-4-4-4-4-4-4-1-1-1-1-1-1-1-1--|

Guitar 4:
e|--16-16-16-16-16-16-16-16-17-17-17-17-18---20----|
B|--x--x--x--x--x--x--x--x--x--x--x--x--x----x-----|
G|--13-13-13-13-13-13-13-13-14-14-14-14-15---17----|
D|-------------------------------------------------|
A|-------------------------------------------------|
E|-------------------------------------------------|

e|--18-18-18-18-18-18-18-18-18-18-18-18-18-18-17----|
B|--x--x--x--x--x--x--x--x--x--x--x--x--x--x--x-----|
G|--15-15-15-15-15-15-15-15-15-15-15-15-15-15-14----|
D|--------------------------------------------------|
A|--------------------------------------------------|
E|--------------------------------------------------|

e|--16-16-16-16-16-16-16-16-17---18---17---18----|
B|--x--x--x--x--x--x--x--x--x----x----x----x-----|
G|--13-13-13-13-13-13-13-13-14---15---14---15----|
D|-----------------------------------------------|
A|-----------------------------------------------|
E|-----------------------------------------------|

[Bridge part B]
Guitar 1:
e|--3-3-3-3-3-3-3-3-3-3-3-3-3-3-3-3-6--6--6--6--6--6--6--6--11-11-11-11-11-11-11-11--|
B|--6-6-6-6-6-6-6-6-6-6-6-6-6-6-6-6-10-10-10-10-10-10-10-10-15-15-15-15-15-15-15-15--|
G|-----------------------------------------------------------------------------------|
D|-----------------------------------------------------------------------------------|
A|-----------------------------------------------------------------------------------|
E|-----------------------------------------------------------------------------------|

e|--10-10-10-10-10-10-10-10-10-10-10-10-10-10-10-10-15-15-15-15-15-15-15-15-13-13-13-13-13\\\\--|
B|--13-13-13-13-13-13-13-13-13-13-13-13-13-13-13-13-18-18-18-18-18-18-18-18-17-17-17-17-17\\\\--|
G|----------------------------------------------------------------------------------------------|
D|----------------------------------------------------------------------------------------------|
A|----------------------------------------------------------------------------------------------|
E|----------------------------------------------------------------------------------------------|

Guitar 2:
e|---------------------------------------------------|
B|--11/13-13-13-13-13-13-13-13\11-11-11-11-11-11-11--|
G|--12/14-14-14-14-14-14-14-14\12-12-12-12-12-12-12--|
D|---------------------------------------------------|
A|---------------------------------------------------|x3
E|---------------------------------------------------|

e|---------------------------------------------------|
B|--11/13-13-13-13-13-13-13-15-15-15-15-15-15-15-15--|
G|--12/14-14-14-14-14-14-14-15-15-15-15-15-15-15-15--|
D|---------------------------------------------------|
A|---------------------------------------------------|
E|---------------------------------------------------|

[Final chorus A]
Guitar 1:
e|----------------------------------------------|
B|-------13---------13---------13---------13----|
G|--15------15-14------14-12------12-12---------|
D|----------------------------------------------|
A|----------------------------------------------|x2
E|----------------------------------------------|

e|-------------------------------------------|
B|-------11---------9------------------------|
G|--13------13-12------12-10~----------------|
D|-------------------------------------------|
A|-------------------------------------------|x2
E|-------------------------------------------|
  ^guitar 3 enter^

Guitar 2:
e|--6-----x-6-6-x-x-1-----x-1-1-x-x-3-----x-3-3-x-x-3-----x-3-3-x-x--|
B|--6-----x-6-6-x-x-1-----x-1-1-x-x-4-----x-4-4-x-x-4-----x-4-4-x-x--|
G|--7-----x-7-7-x-x-2-----x-2-2-x-x-5-----x-5-5-x-x-5-----x-5-5-x-x--|
D|--8-----x-8-8-x-x-3-----x-3-3-x-x-5-----x-5-5-x-x-5-----x-5-5-x-x--|
A|--8-----x-8-8-x-x-3-----x-3-3-x-x-3-----x-3-3-x-x-3-----x-3-3-x-x--|
E|--6-----x-6-6-x-x-1-----x-1-1-x-x----------------------------------|

e|--6-----x-6-6-x-x-1-----x-1-1-x-x-3-----x-3-3-x-x-3---2---3---4----|
B|--6-----x-6-6-x-x-1-----x-1-1-x-x-4-----x-4-4-x-x-4---3---4---5----|
G|--7-----x-7-7-x-x-2-----x-2-2-x-x-5-----x-5-5-x-x-5---4---5---6----|
D|--8-----x-8-8-x-x-3-----x-3-3-x-x-5-----x-5-5-x-x-5---4---5---6----|
A|--8-----x-8-8-x-x-3-----x-3-3-x-x-3-----x-3-3-x-x-3---2---3---4----|
E|--6-----x-6-6-x-x-1-----x-1-1-x-x----------------------------------|

e|--4-----x-4-4-x-x-6-----x-6-6-x-x-6-----x-6-6-x-x-6-----x-6-6-x-x--|
B|--4-----x-4-4-x-x-8-----x-8-8-x-x-6-----x-6-6-x-x-6-----x-6-6-x-x--|
G|--5-----x-5-5-x-x-8-----x-8-8-x-x-6-----x-6-6-x-x-6-----x-6-6-x-x--|
D|--6-----x-6-6-x-x-8-----x-8-8-x-x-8-----x-8-8-x-x-8-----x-8-8-x-x--|
A|--6-----x-6-6-x-x-6-----x-6-6-x-x-8-----x-8-8-x-x-8-----x-8-8-x-x--|
E|--4-----x-4-4-x-x-----------------6-----x-6-6-x-x-6-----x-6-6-x-x--|

e|--4-----x-4-4-x-x-6-----x-6-6-x-x-6-----x-6-6-x-x-6---6---5---4----|
B|--4-----x-4-4-x-x-8-----x-8-8-x-x-6-----x-6-6-x-x-6---6---5---4----|
G|--5-----x-5-5-x-x-8-----x-8-8-x-x-6-----x-6-6-x-x-6---6---5---4----|
D|--6-----x-6-6-x-x-8-----x-8-8-x-x-8-----x-8-8-x-x-8---8---7---6----|
A|--6-----x-6-6-x-x-6-----x-6-6-x-x-8-----x-8-8-x-x-8---8---7---6----|
E|--4-----x-4-4-x-x-----------------6-----x-6-6-x-x-6---6---5---4----|

Guitar 3:
e|--16----16----16----16----16----16----16----16-----|
B|-----20----20----20----20----20----20----20----20--|
G|---------------------------------------------------|
D|---------------------------------------------------|
A|---------------------------------------------------|x2
E|---------------------------------------------------|

[Final chorus B]
Guitar 1:
e|----------------------------------------------|
B|-------13---------13---------13---------13----|
G|--15------15-14------14-12------12-12---------|
D|----------------------------------------------|
A|----------------------------------------------|x2
E|----------------------------------------------|

e|-------------------------------------------|
B|-------11---------9------------------------|
G|--13------13-12------12-10~----------------|
D|-------------------------------------------|
A|-------------------------------------------|x2
E|-------------------------------------------|

Guitar 2:
e|--6-----x-6-6-x-x-1-----x-1-1-x-x-3-----x-3-3-x-x-3-----x-3-3-x-x--|
B|--6-----x-6-6-x-x-1-----x-1-1-x-x-4-----x-4-4-x-x-4-----x-4-4-x-x--|
G|--7-----x-7-7-x-x-2-----x-2-2-x-x-5-----x-5-5-x-x-5-----x-5-5-x-x--|
D|--8-----x-8-8-x-x-3-----x-3-3-x-x-5-----x-5-5-x-x-5-----x-5-5-x-x--|
A|--8-----x-8-8-x-x-3-----x-3-3-x-x-3-----x-3-3-x-x-3-----x-3-3-x-x--|
E|--6-----x-6-6-x-x-1-----x-1-1-x-x----------------------------------|

e|--6-----x-6-6-x-x-1-----x-1-1-x-x-3-----x-3-3-x-x-3---2---3---4----|
B|--6-----x-6-6-x-x-1-----x-1-1-x-x-4-----x-4-4-x-x-4---3---4---5----|
G|--7-----x-7-7-x-x-2-----x-2-2-x-x-5-----x-5-5-x-x-5---4---5---6----|
D|--8-----x-8-8-x-x-3-----x-3-3-x-x-5-----x-5-5-x-x-5---4---5---6----|
A|--8-----x-8-8-x-x-3-----x-3-3-x-x-3-----x-3-3-x-x-3---2---3---4----|
E|--6-----x-6-6-x-x-1-----x-1-1-x-x----------------------------------|

e|--4-----x-4-4-x-x-6-----x-6-6-x-x-6-----x-6-6-x-x-6-----x-6-6-x-x--|
B|--4-----x-4-4-x-x-8-----x-8-8-x-x-6-----x-6-6-x-x-6-----x-6-6-x-x--|
G|--5-----x-5-5-x-x-8-----x-8-8-x-x-6-----x-6-6-x-x-6-----x-6-6-x-x--|
D|--6-----x-6-6-x-x-8-----x-8-8-x-x-8-----x-8-8-x-x-8-----x-8-8-x-x--|
A|--6-----x-6-6-x-x-6-----x-6-6-x-x-8-----x-8-8-x-x-8-----x-8-8-x-x--|<- enter guitar 3
E|--4-----x-4-4-x-x-----------------6-----x-6-6-x-x-6-----x-6-6-x-x--|

e|--4-----x-4-4-x-x-6-----x-6-6-x-x-6-----x-6-6-x-x-6---6---5---4----|
B|--4-----x-4-4-x-x-8-----x-8-8-x-x-6-----x-6-6-x-x-6---6---5---4----|
G|--5-----x-5-5-x-x-8-----x-8-8-x-x-6-----x-6-6-x-x-6---6---5---4----|
D|--6-----x-6-6-x-x-8-----x-8-8-x-x-8-----x-8-8-x-x-8---8---7---6----|
A|--6-----x-6-6-x-x-6-----x-6-6-x-x-8-----x-8-8-x-x-8---8---7---6----|
E|--4-----x-4-4-x-x-----------------6-----x-6-6-x-x-6---6---5---4----|

e|-----|
B|-----|
G|-----|
D|--5--|
A|--5--|
E|--3--|

Guitar 3:

e|-------------------------------------------------------------------------------|
B|--14-----x-14-14-x-x-14-----x-14-14-x-x-14-----x-14-14-x-x-14-----x-14-14-x-x--|
G|--17-----x-17-17-x-x-17-----x-17-17-x-x-17-----x-17-17-x-x-17-----x-17-17-x-x--|
D|-------------------------------------------------------------------------------|
A|-------------------------------------------------------------------------------|x2
E|-------------------------------------------------------------------------------|

*********************
/ - slide up
\ - slide down
x - mute note
~ - sustain 
b - bend up 
*********************
Suggest correction
Creating personal tab
Creating personal tab
You can edit any tab online and save it as your Personal.

You can edit, replace or remove any tab part or add personal notes – all changes will be seen only by you.

Personal tabs can be accessed anytime from any device, even offline.
Learn more »
Give kudos to tab author, rate the tab!
1 2 3 4 5
comments
print report bad tab
guest
You may want to rate the tab now too:
select rating
Wanna post a correction for this tab? Suggest correction