Oops, an error
Loading. Please wait.

Indie 500 tab

10 views 1 this week
no commentswrite comment
1 2 3 4 5
3 more votes to show rating
add to favorites
×
Save as Personal and add changes to this tab that will be seen only by you. Learn more ›
×
You can save this tab as Personal to edit and correct it or add notes. All changes will be seen only by you. Learn more »
launch autoscroll
font size
0
reset
how to read this tab
guitar tuner
edit
Autoscroll
slow
fast
+/-
esc
set tempo
stop
Author
Difficulty
[Intro]
Guitar 1:
e|------------------------------------------------------------------------14-----------|
B|--8---------8---------8---------15--------13--------13--------13--------19b18--------|
G|--12r11-----12r11-----12r11-----19r18-----16r15-----16r15-----16r15------------------|
D|-------------------------------------------------------------------------------------|
A|-------------------------------------------------------------------------------------|
E|-------------------------------------------------------------------------------------|

e|--------------------------------------------------------------14-14-14-13-13-14-14\\\\--|
B|--8---------8---------8---------15--------13--------13--------18-18-18-17-17-18-18\\\\--|
G|--12r11-----12r11-----12r11-----19r18-----16r15-----16r15-------------------------------|
D|----------------------------------------------------------------------------------------|
A|----------------------------------------------------------------------------------------|
E|----------------------------------------------------------------------------------------|

Guitar 2:
e|---------------------------|
B|--13----13----13----13-----|
G|--15b16-15b16-15b16-15b16--|
D|---------------------------|
A|---------------------------|x3
E|---------------------------|

e|-----------------|
B|--13~~~~~~~~~~~--|
G|--15b16~~~~~~~~--|
D|-----------------|
A|-----------------|
E|-----------------|

[Verse 1]
Guitar 1:
e|----------------------------------/17-17-17-17-17-17-17-17-17-17-17-17-17-17-17-17--|
B|-----------------------------------x--x--x--x--x--x--x--x--x--x--x--x--x--x--x--x---|
G|----------------------------------/14-14-14-14-14-14-14-14-14-14-14-14-14-14-14-14--|
D|--2---2---2-2-2-2-5-5-5-5-7-7-7-7---------------------------------------------------|
A|--2---2---2-2-2-2-5-5-5-5-7-7-7-7---------------------------------------------------|x6
E|--0---0---0-0-0-0-3-3-3-3-5-5-5-5---------------------------------------------------|

Guitar 2:
e|----------------------------------/18-18-18-18-18-18-18-18-18-18-18-18-18-18-18-18--|
B|-----------------------------------x--x--x--x--x--x--x--x--x--x--x--x--x--x--x--x---|
G|----------------------------------/15-15-15-15-15-15-15-15-15-15-15-15-15-15-15-15--|
D|--2---2---2-2-2-2-5-5-5-5-7-7-7-7---------------------------------------------------|
A|--2---2---2-2-2-2-5-5-5-5-7-7-7-7---------------------------------------------------|x6
E|--0---0---0-0-0-0-3-3-3-3-5-5-5-5---------------------------------------------------|

[Instrumental]
Guitar 1:
e|------------------------------------------------------------------------14-----------|
B|--8---------8---------8---------15--------13--------13--------13--------19b18--------|
G|--12r11-----12r11-----12r11-----19r18-----16r15-----16r15-----16r15------------------|
D|-------------------------------------------------------------------------------------|
A|-------------------------------------------------------------------------------------|
E|-------------------------------------------------------------------------------------|

e|-----------------------------------------------------------------------------------------------|
B|--8---------8---------8---------15--------13----13----13----13----13----/18-18-18-18-18-18-18--|
G|--12r11-----12r11-----12r11-----19r18-----16r15-16r15-16r15-16r15-16r15-/21-21-21-21-21-21-21--|
D|-----------------------------------------------------------------------------------------------|
A|-----------------------------------------------------------------------------------------------|
E|-----------------------------------------------------------------------------------------------|

Guitar 2:

e|---------------------------|
B|--13----13----13----13-----|
G|--15b16-15b16-15b16-15b16--|
D|---------------------------|
A|---------------------------|x7
E|---------------------------|

e|-----------------|
B|--13~~~~~~~~~~~--|
G|--15b16~~~~~~~~--|
D|-----------------|
A|-----------------|
E|-----------------|

[Verse 2]
Guitar 1:
e|----------------------------------/17-17-17-17-17-17-17-17-17-17-17-17-17-17-17-17--|
B|-----------------------------------x--x--x--x--x--x--x--x--x--x--x--x--x--x--x--x---|
G|----------------------------------/14-14-14-14-14-14-14-14-14-14-14-14-14-14-14-14--|
D|--2---2---2-2-2-2-5-5-5-5-7-7-7-7---------------------------------------------------|
A|--2---2---2-2-2-2-5-5-5-5-7-7-7-7---------------------------------------------------|
E|--0---0---0-0-0-0-3-3-3-3-5-5-5-5---------------------------------------------------|

e|----------------------------------/17-17-17-17-17-17-17-17-17-17-17-17-/20/21-21-21--|
B|-----------------------------------x--x--x--x--x--x--x--x--x--x--x--x---x--x--x--x---|
G|----------------------------------/14-14-14-14-14-14-14-14-14-14-14-14-/17/18-18-18--|
D|--2---2---2-2-2-2-5-5-5-5-7-7-7-7----------------------------------------------------|
A|--2---2---2-2-2-2-5-5-5-5-7-7-7-7----------------------------------------------------|
E|--0---0---0-0-0-0-3-3-3-3-5-5-5-5----------------------------------------------------|

e|----------------------------------/17-17-17-17-17-17-17-17-17-17-17-17-17-17-17-17--|
B|-----------------------------------x--x--x--x--x--x--x--x--x--x--x--x--x--x--x--x---|
G|----------------------------------/14-14-14-14-14-14-14-14-14-14-14-14-14-14-14-14--|
D|--2---2---2-2-2-2-5-5-5-5-7-7-7-7---------------------------------------------------|
A|--2---2---2-2-2-2-5-5-5-5-7-7-7-7---------------------------------------------------|x2
E|--0---0---0-0-0-0-3-3-3-3-5-5-5-5---------------------------------------------------|

Guitar 2:
e|----------------------------------/18-18-18-18-18-18-18-18-18-18-18-18-18-18-18-18--|
B|-----------------------------------x--x--x--x--x--x--x--x--x--x--x--x--x--x--x--x---|
G|----------------------------------/15-15-15-15-15-15-15-15-15-15-15-15-15-15-15-15--|
D|--2---2---2-2-2-2-5-5-5-5-7-7-7-7---------------------------------------------------|
A|--2---2---2-2-2-2-5-5-5-5-7-7-7-7---------------------------------------------------|x4
E|--0---0---0-0-0-0-3-3-3-3-5-5-5-5---------------------------------------------------|

[Chorus 1]
Guitar 1:
e|--8--8----8--8--8--8--8--10-10---10-10-10-10-10-8--8--8--8--8--8--8--8--15-15-15-15-15-15-15-15--|
B|--11-11---11-11-11-11-11-13-13---13-13-13-13-13-12-12-12-12-12-12-12-12-18-18-18-18-18-18-18-18--|
G|-------------------------------------------------------------------------------------------------|
D|-------------------------------------------------------------------------------------------------|
A|-------------------------------------------------------------------------------------------------|
E|-------------------------------------------------------------------------------------------------|

e|--13-13---13-13-13-13-13-13-13---13-13-13-13-13-8--8--8--8--8--8--8--8--6--6--6--6--6--6--6--6---|
B|--16-16---16-16-16-16-16-17-17---17-17-17-17-17-12-12-12-12-12-12-12-12-10-10-10-10-10-10-10-10--|
G|-------------------------------------------------------------------------------------------------|
D|-------------------------------------------------------------------------------------------------|
A|-------------------------------------------------------------------------------------------------|
E|-------------------------------------------------------------------------------------------------|

e|--8--8----8--8--8--8--8--10-10---10-10-10-10-10-8--8--8--8--8--8--8--8--15-15-15-15-15-15-15-15--|
B|--11-11---11-11-11-11-11-13-13---13-13-13-13-13-12-12-12-12-12-12-12-12-18-18-18-18-18-18-18-18--|
G|-------------------------------------------------------------------------------------------------|
D|-------------------------------------------------------------------------------------------------|
A|-------------------------------------------------------------------------------------------------|
E|-------------------------------------------------------------------------------------------------|

e|--13-13-13-13-13-13-13-13-13-13-13-13-13-13-13-13--|
B|--16-16-16-16-16-16-16-16-17-17-17-17-17-17-17-17--|
G|---------------------------------------------------|
D|---------------------------------------------------|
A|---------------------------------------------------|
E|---------------------------------------------------|

Guitar 2:
e|-------------------------------------------------------------------|
B|-------------------------------------------------------------------|
G|--3-3---3-3-3-3-3-5-5---5-5-5-5-5----------------------------------|
D|--3-3---3-3-3-3-3-5-5---5-5-5-5-5-5-5-5-5-5-5-5-5-3-3-3-3-3-3-3-3--|
A|--1-1---1-1-1-1-1-3-3---3-3-3-3-3-5-5-5-5-5-5-5-5-3-3-3-3-3-3-3-3--|
E|----------------------------------3-3-3-3-3-3-3-3-1-1-1-1-1-1-1-1--|

e|-------------------------------------------------------------------|
B|-------------------------------------------------------------------|
G|--8-8---8-8-8-8-8-5-5---5-5-5-5-5----------------------------------|
D|--8-8---8-8-8-8-8-5-5---5-5-5-5-5-5-5-5-5-5-5-5-5-3-3-3-3-3-3-3-3--|
A|--6-6---6-6-6-6-6-3-3---3-3-3-3-3-5-5-5-5-5-5-5-5-3-3-3-3-3-3-3-3--|
E|----------------------------------3-3-3-3-3-3-3-3-1-1-1-1-1-1-1-1--|

e|-------------------------------------------------------------------|
B|-------------------------------------------------------------------|
G|--3-3---3-3-3-3-3-5-5---5-5-5-5-5----------------------------------|
D|--3-3---3-3-3-3-3-5-5---5-5-5-5-5-5-5-5-5-5-5-5-5-3-3-3-3-3-3-3-3--|
A|--1-1---1-1-1-1-1-3-3---3-3-3-3-3-5-5-5-5-5-5-5-5-3-3-3-3-3-3-3-3--|
E|----------------------------------3-3-3-3-3-3-3-3-1-1-1-1-1-1-1-1--|

e|-----------------------------------|
B|-----------------------------------|
G|--8-8-8-8-8-8-8-8-5-5-5-5-5-5-5-5--|
D|--8-8-8-8-8-8-8-8-5-5-5-5-5-5-5-5--|
A|--6-6-6-6-6-6-6-6-3-3-3-3-3-3-3-3--|
E|-----------------------------------|

[False ending]
Guitar 1:
e|--15~~~~~~~~---------------|
B|---------------19~~~~~~~~--|
G|---------------------------|
D|---------------------------|
A|---------------------------|
E|---------------------------|

Guitar 2:
e|--0~~~~--|
B|--0~~~~--|
G|--0~~~~--|
D|--2~~~~--|
A|--2~~~~--|
E|--0~~~~--|

[Instrumental]
Guitar 1:
e|---------------------------------------------------------------------14-----------|
B|--8------8---------8---------15--------13--------13--------13--------19b18--------|
G|--11-----12r11-----12r11-----19r18-----16r15-----16r15-----16r15------------------|
D|----------------------------------------------------------------------------------|
A|----------------------------------------------------------------------------------|
E|----------------------------------------------------------------------------------|

e|----------------------------------------------------------------------------------------------|
B|--8---------8---------8---------15--------13----13----13----13----18-18-18-18-18-18-18-18-18--|
G|--12r11-----12r11-----12r11-----19r18-----16r15-16r15-16r15-16r15-21-21-21-21-21-21-21-21-21--|
D|----------------------------------------------------------------------------------------------|
A|----------------------------------------------------------------------------------------------|
E|----------------------------------------------------------------------------------------------|

Guitar 2:
e|-------------------------|
B|------13----13----13-----|
G|------15b16-15b16-15b16--|
D|-------------------------|
A|-------------------------|
E|-------------------------|

e|---------------------------|
B|--13----13----13----13-----|
G|--15b16-15b16-15b16-15b16--|
D|---------------------------|
A|---------------------------|x6
E|---------------------------|

e|-----------------|
B|--13~~~~~~~~~~~--|
G|--15b16~~~~~~~~--|
D|-----------------|
A|-----------------|
E|-----------------|

[Verse 3]
Guitar 1:
e|----------------------------------/17-17-17-17-17-17-17-17-17-17-17-17-17-17-17-17--|
B|-----------------------------------x--x--x--x--x--x--x--x--x--x--x--x--x--x--x--x---|
G|----------------------------------/14-14-14-14-14-14-14-14-14-14-14-14-14-14-14-14--|
D|--2---2---2---2---5-5-5-5-7-7-7-7---------------------------------------------------|
A|--2---2---2---2---5-5-5-5-7-7-7-7---------------------------------------------------|x4
E|--0---0---0---0---3-3-3-3-5-5-5-5---------------------------------------------------|

Guitar 2:
e|----------------------------------/18-18-18-18-18-18-18-18-18-18-18-18-18-18-18-18--|
B|-----------------------------------x--x--x--x--x--x--x--x--x--x--x--x--x--x--x--x---|
G|----------------------------------/15-15-15-15-15-15-15-15-15-15-15-15-15-15-15-15--|
D|--2---2---2---2---5-5-5-5-7-7-7-7---------------------------------------------------|
A|--2---2---2---2---5-5-5-5-7-7-7-7---------------------------------------------------|x4
E|--0---0---0---0---3-3-3-3-5-5-5-5---------------------------------------------------|

[Chorus 2]
Guitar 1:
e|--8--8----8--8--8--8--8--10-10---10-10-10-10-10-8--8--8--8--8--8--8--8--15-15-15-15-15-15-15-15--|
B|--11-11---11-11-11-11-11-13-13---13-13-13-13-13-12-12-12-12-12-12-12-12-18-18-18-18-18-18-18-18--|
G|-------------------------------------------------------------------------------------------------|
D|-------------------------------------------------------------------------------------------------|
A|-------------------------------------------------------------------------------------------------|
E|-------------------------------------------------------------------------------------------------|

e|--13-13---13-13-13-13-13-13-13---13-13-13-13-13-8--8--8--8--8--8--8--8--6--6--6--6--6--6--6--6---|
B|--16-16---16-16-16-16-16-17-17---17-17-17-17-17-12-12-12-12-12-12-12-12-10-10-10-10-10-10-10-10--|
G|-------------------------------------------------------------------------------------------------|
D|-------------------------------------------------------------------------------------------------|
A|-------------------------------------------------------------------------------------------------|
E|-------------------------------------------------------------------------------------------------|

e|--8--8----8--8--8--8--8--10-10---10-10-10-10-10-8--8--8--8--8--8--8--8--15-15-15-15-15-15-15-15--|
B|--11-11---11-11-11-11-11-13-13---13-13-13-13-13-12-12-12-12-12-12-12-12-18-18-18-18-18-18-18-18--|
G|-------------------------------------------------------------------------------------------------|
D|-------------------------------------------------------------------------------------------------|
A|-------------------------------------------------------------------------------------------------|
E|-------------------------------------------------------------------------------------------------|

e|--13-13-13-13-13-13-13-13-13-13-13-13-13-13-13-13--|
B|--16-16-16-16-16-16-16-16-17-17-17-17-17-17-17-17--|
G|---------------------------------------------------|
D|---------------------------------------------------|
A|---------------------------------------------------|
E|---------------------------------------------------|

Guitar 2:
e|-------------------------------------------------------------------|
B|-------------------------------------------------------------------|
G|--3-3---3-3-3-3-3-5-5---5-5-5-5-5----------------------------------|
D|--3-3---3-3-3-3-3-5-5---5-5-5-5-5-5-5-5-5-5-5-5-5-3-3-3-3-3-3-3-3--|
A|--1-1---1-1-1-1-1-3-3---3-3-3-3-3-5-5-5-5-5-5-5-5-3-3-3-3-3-3-3-3--|
E|----------------------------------3-3-3-3-3-3-3-3-1-1-1-1-1-1-1-1--|

e|-------------------------------------------------------------------|
B|-------------------------------------------------------------------|
G|--8-8---8-8-8-8-8-5-5---5-5-5-5-5----------------------------------|
D|--8-8---8-8-8-8-8-5-5---5-5-5-5-5-5-5-5-5-5-5-5-5-3-3-3-3-3-3-3-3--|
A|--6-6---6-6-6-6-6-3-3---3-3-3-3-3-5-5-5-5-5-5-5-5-3-3-3-3-3-3-3-3--|
E|----------------------------------3-3-3-3-3-3-3-3-1-1-1-1-1-1-1-1--|

e|-------------------------------------------------------------------|
B|-------------------------------------------------------------------|
G|--3-3---3-3-3-3-3-5-5---5-5-5-5-5----------------------------------|
D|--3-3---3-3-3-3-3-5-5---5-5-5-5-5-5-5-5-5-5-5-5-5-3-3-3-3-3-3-3-3--|
A|--1-1---1-1-1-1-1-3-3---3-3-3-3-3-5-5-5-5-5-5-5-5-3-3-3-3-3-3-3-3--|
E|----------------------------------3-3-3-3-3-3-3-3-1-1-1-1-1-1-1-1--|

e|-----------------------------------|
B|-----------------------------------|
G|--8-8-8-8-8-8-8-8-5-5-5-5-5-5-5-5--|
D|--8-8-8-8-8-8-8-8-5-5-5-5-5-5-5-5--|
A|--6-6-6-6-6-6-6-6-3-3-3-3-3-3-3-3--|
E|-----------------------------------|

[False ending]
Guitar 1:
e|--15~~~~--|-------------------------17--|--0~~~~~~~~--|
B|--19~~~~--|--19-19-19---19-19-19-19-----|----0~~~~~~--|
G|----------|-----------------------------|------0~~~~--|
D|----------|-----------------------------|-------------|
A|----------|-----------------------------|-------------|
E|----------|-----------------------------|-------------|

Guitar 2:
e|--0~~~~--|------------|
B|--0~~~~--|--0wwwwwww--|
G|--0~~~~--|--0wwwwwww--|
D|--2~~~~--|------------|
A|--2~~~~--|------------|
E|--0~~~~--|------------|

[Instrumental]
Guitar 1:
e|------------------------------------------------------------------------14-----------|
B|--8---------8---------8---------15--------13--------13--------13--------19b18--------|
G|--12r11-----12r11-----12r11-----19r18-----16r15-----16r15-----16r15------------------|
D|-------------------------------------------------------------------------------------|
A|-------------------------------------------------------------------------------------|
E|-------------------------------------------------------------------------------------|

e|------------------------------------------------------------14-14-14-14-13-13-14-14\\\\--|
B|--8---------8---------8---------15--------13--------13------18-18-18-18-17-17-18-18\\\\--|
G|--12r11-----12r11-----12r11-----19r18-----16r15-----16r15--------------------------------|
D|-----------------------------------------------------------------------------------------|
A|-----------------------------------------------------------------------------------------|
E|-----------------------------------------------------------------------------------------|

e|------------------------------------------------------------------------------------------|
B|--8---------8---------8---------15--------13--------13--------13----18-18-18-18-18-18-18--|
G|--12r11-----12r11-----12r11-----19r18-----16r15-----16r15-----16r15-21-21-21-21-21-21-21--|
D|------------------------------------------------------------------------------------------|
A|------------------------------------------------------------------------------------------|
E|------------------------------------------------------------------------------------------|

e|------------------------------------------------------------14-14-14-14-13-13-14-14\\\\--|
B|--8---------8---------8---------15--------13--------13------18-18-18-18-17-17-18-18\\\\--|
G|--12r11-----12r11-----12r11-----19r18-----16r15-----16r15--------------------------------|
D|-----------------------------------------------------------------------------------------|
A|-----------------------------------------------------------------------------------------|
E|-----------------------------------------------------------------------------------------|

e|------------------------------------------------------------------------14-----------|
B|--8---------8---------8---------15--------13--------13--------13--------19b18--------|
G|--12r11-----12r11-----12r11-----19r18-----16r15-----16r15-----16r15------------------|
D|-------------------------------------------------------------------------------------|
A|-------------------------------------------------------------------------------------|
E|-------------------------------------------------------------------------------------|

e|------------------------------------------------------------------------------------------|
B|--8---------8---------8---------15--------13--------13--------13----18-18-18-18-18-18-18--|
G|--12r11-----12r11-----12r11-----19r18-----16r15-----16r15-----16r15-21-21-21-21-21-21-21--|
D|------------------------------------------------------------------------------------------|
A|------------------------------------------------------------------------------------------|
E|------------------------------------------------------------------------------------------|

Guitar 2:
e|---------|
B|--13-----|
G|--15b16--| <- strum and bend 
D|---------|
A|---------|
E|---------|

[End] 
Guitar 1:
e|---------|
B|--18-----|
G|--21b22--| <- strum and bend 
D|---------|
A|---------|
E|---------|

Guitar 2:
e|----------|
B|--13~~~~--|
G|--16~~~~--|
D|----------|
A|----------|
E|----------|

****************

/ - slide up
\ - slide down
b - bend up
r - release
~ - sustain 
x - mute note 
w - whammy bend
 
****************
Suggest correction
Creating personal tab
Creating personal tab
You can edit any tab online and save it as your Personal.

You can edit, replace or remove any tab part or add personal notes – all changes will be seen only by you.

Personal tabs can be accessed anytime from any device, even offline.
Learn more »
Give kudos to tab author, rate the tab!
1 2 3 4 5
comments
print report bad tab
guest
You may want to rate the tab now too:
select rating
Wanna post a correction for this tab? Suggest correction