Oops, an error
Loading. Please wait.

Its Not Getting Any Good tab

19 views 3 this week
no commentswrite comment
1 2 3 4 5
3 more votes to show rating
add to favorites
×
Save as Personal and add changes to this tab that will be seen only by you. Learn more ›
×
You can save this tab as Personal to edit and correct it or add notes. All changes will be seen only by you. Learn more »
launch autoscroll
font size
0
reset
how to read this tab
guitar tuner
edit
Autoscroll
slow
fast
+/-
esc
set tempo
stop
The Wrens - It's Not Getting Any Good - guitar tab

[Verse 1]

Guitar 1:

e|------------------|------------------|
B|--6-6-x-x-x-x-x-x-|-x-x-x-x-x-x-x-x--|
G|--9-9-x-x-x-x-x-x-|-x-x-x-x-x-x-x-x--|
D|------------------|------------------|
A|------------------|------------------|x2
E|------------------|------------------|

e|------------------|--------------------|
B|--6-6-x-x-x-x-x-x-|-13\12-x-x-x-x-x-x--|
G|--9-9-x-x-x-x-x-x-|-14\13-x-x-x-x-x-x--|
D|------------------|--------------------|
A|------------------|--------------------|
E|------------------|--------------------|

e|------------------|------------------|
B|--6-6-x-x-x-x-x-x-|-x-x-x-x-x-x-x-x--|
G|--9-9-x-x-x-x-x-x-|-x-x-x-x-x-x-x-x--|
D|------------------|------------------|
A|------------------|------------------|
E|------------------|------------------|

e|------------------|------------------|
B|--6-6-x-x-6-6-6-x-|-x-x-x-x-x-x-x-x--|
G|--9-9-x-x-9-9-9-x-|-x-x-x-x-x-x-x-x--|
D|------------------|------------------|
A|------------------|------------------|x4
E|------------------|------------------|

Guitar 2:

e|--[7]-[7]-[7]-[7]-[7]-[7]-[7]-[7]-|-[7]----------------|
B|----------------------------------|--------------------|
G|----------------------------------|--------------------|
D|----------------------------------|--------------------|
A|----------------------------------|--------------------|x3
E|----------------------------------|--------------------|

[Pre-chorus 1]

Guitar 1:

e|--------------------------|--------------------------|
B|--10----13----10----11----|-10----10----11----11-----|
G|-----12----12----12----12-|----12----12----12----12--|
D|--------------------------|--------------------------|
A|--------------------------|--------------------------|
E|--------------------------|--------------------------|

e|--------------------------|--------------------------|
B|--10----10----11----11----|-15----14----15----17-----|
G|-----12----12----12----12-|----18----16----18--------|
D|--------------------------|--------------------------|
A|--------------------------|--------------------------|
E|--------------------------|--------------------------|

Guitar 2:

e|--------8----------8----|-------6----8-----------|
B|--10-10---10-10-10---10-|-10-10---10---10-10-10--|
G|------------------------|------------------------|
D|------------------------|------------------------|
A|------------------------|------------------------|
E|------------------------|------------------------|

e|--------8----------8-----|---------------------------|
B|--10-10---10-10-10---10//|//15----15----15----15-----|
G|-------------------------|-----18----18----18----18--|
D|-------------------------|---------------------------|
A|-------------------------|---------------------------|
E|-------------------------|---------------------------|

[Chorus 1]

Guitar 1:

e|--13--|
B|--17--|<- strum this for entire chorus
G|------|
D|------|
A|------|
E|------|

Guitar 2:

e|----6-6-6-8-6-8-6-|-5~~~~-----------|-------------10-10--|
B|----x-x-x-x-x-x-x-|-x---------------|-------------x--x---|
G|----3-3-3-5-3-5-3-|-2~~~~-----------|-------------7--7---|
D|------------------|-----------------|--------------------|
A|------------------|-----------------|--------------------|
E|------------------|-----------------|--------------------|

e|--17-17-17-18-\14-14-14-14-|-----10-10-/17-17-17-18-|-\15-15-15-15-15-15-15-15--|
B|--x--x--x--x---x--x--x--x--|-----x--x---x--x--x--x--|--x--x--x--x--x--x--x--x---|
G|--14-14-14-14-\11-11-11-11-|-----7--7--/14-14-14-15-|-\12-12-12-12-12-12-12-12--|
D|---------------------------|------------------------|---------------------------|
A|---------------------------|------------------------|---------------------------|
E|---------------------------|------------------------|---------------------------|

e|----6-6-6-8-6-8-6--|
B|----x-x-x-x-x-x-x--|
G|----3-3-3-5-3-5-3--|
D|-------------------|
A|-------------------|
E|-------------------|

[Verse 2]

Guitar 1:

e|------------------|------------------|
B|--x-x-x-x-x-x-x-x-|-x-x-x-x-x-x-x-x--|
G|--x-x-x-x-x-x-x-x-|-x-x-x-x-x-x-x-x--|
D|------------------|------------------|
A|------------------|------------------|x2
E|------------------|------------------|

e|--------------------|---------------------|
B|--15-15-x-x-x-x-x-x-|-x-x-15\14/15-x-x-x--|
G|--17-17-x-x-x-x-x-x-|-x-x-17\16/17-x-x-x--|
D|--------------------|---------------------|
A|--------------------|---------------------|x6
E|--------------------|---------------------|

Guitar 2:

e|--10ww--|
B|--x-----|
G|--7www--|
D|--------|
A|--------|x2
E|--------|

e|--[7]-[7]-[7]-[7]-[7]-[7]-[7]-[7]-|-[7]-[7]-[7]-[7]-[7]-[7]-[7]-[7]-|-[7]-[7]--------------|
B|----------------------------------|---------------------------------|----------------------|
G|----------------------------------|---------------------------------|----------------------|
D|----------------------------------|---------------------------------|----------------------|
A|----------------------------------|---------------------------------|----------------------|x3
E|----------------------------------|---------------------------------|----------------------|

[Pre-chorus 2]

Guitar 1:

e|--------------------------|--------------------------|
B|--10----10----10----10----|-------11----------11-----|
G|-----12----12----12----12-|-12-12----12-12-12----12--|
D|--------------------------|--------------------------|
A|--------------------------|--------------------------|
E|--------------------------|--------------------------|

e|--------------------------|--------------------------|
B|--10----10----11----11----|-15----15----17----18-----|
G|-----12----12----12----12-|----18----18----19-21-----|
D|--------------------------|--------------------------|
A|--------------------------|--------------------------|
E|--------------------------|--------------------------|

Guitar 2:

e|--------8----6----8----|-------6----8-----------|
B|--10-10---10---10---10-|-10-10---10---10-10-10--|
G|-----------------------|------------------------|
D|-----------------------|------------------------|
A|-----------------------|------------------------|
E|-----------------------|------------------------|

e|--6----8----------6-----|---------------------------|
B|----10---10-10-10---10//|//15----15----15----15-----|
G|------------------------|-----18----18----18----18--|
D|------------------------|---------------------------|
A|------------------------|---------------------------|
E|------------------------|---------------------------|

[Chorus 2]

Guitar 1:

e|----8--8--8--12-12-12-12--|
B|----11-11-11-15-15-15-15--|
G|--------------------------|
D|--------------------------|
A|--------------------------|
E|--------------------------|

Then

e|--13--|
B|--17--|<- strum this for a while
G|------|
D|------|
A|------|
E|------|

Then

e|------------------|------------------|
B|------------------|------------------|
G|--9-9-9-9-7-7-7-7-|------------------|
D|--9-9-9-9-7-7-7-7-|-5-5-5-5-3-3-3-3--|
A|--7-7-7-7-5-5-5-5-|-5-5-5-5-3-3-3-3--|x3
E|------------------|-3-3-3-3-1-1-1-1--|

e|-------------------|
B|-------------------|
G|----9-9-9-9-9-9-9--|
D|----9-9-9-9-9-9-9--|
A|----7-7-7-7-7-7-7--|
E|-------------------|

Guitar 2:

e|----6-6-6-8-6-8-6-|-5~~~~-----------|-------------10-10--|
B|----x-x-x-x-x-x-x-|-x---------------|-------------x--x---|
G|----3-3-3-5-3-5-3-|-2~~~~-----------|-------------7--7---|
D|------------------|-----------------|--------------------|
A|------------------|-----------------|--------------------|
E|------------------|-----------------|--------------------|

e|--17-17-17-18-\14-14-14-14-|-----10-10-/17-17-17-18-|-\15-15-15-15-15-15-15-15--|
B|--x--x--x--x---x--x--x--x--|-----x--x---x--x--x--x--|--x--x--x--x--x--x--x--x---|
G|--14-14-14-14-\11-11-11-11-|-----7--7--/14-14-14-15-|-\12-12-12-12-12-12-12-12--|
D|---------------------------|------------------------|---------------------------|
A|---------------------------|------------------------|---------------------------|
E|---------------------------|------------------------|---------------------------|
 |                                                                                |x2 
e|----6-6-6-8-6-8-6-|-/10~~~~-----------|-/13~~~~------------|--------------------|
B|----x-x-x-x-x-x-x-|--x----------------|--x-----------------|
G|----3-3-3-5-3-5-3-|-/7~~~~~-----------|-/10~~~~------------|
D|------------------|-------------------|--------------------|
A|------------------|-------------------|--------------------|
E|------------------|-------------------|--------------------|

e|--17-17-17-18-\14-------|-14-14-14-14-14/15-15-15-|-15/17-17-17-17-17-17-17-|
B|--x--x--x--x---x--------|-x--x--x--x--x--x--x--x--|-x--x--x--x--x--x--x--x--|
G|--14-14-14-14-\11-------|-11-11-11-11-11/12-12-12-|-12/14-14-14-14-14-14-14-|
D|------------------------|-------------------------|-------------------------|
A|------------------------|-------------------------|-------------------------|
E|------------------------|-------------------------|-------------------------|

e|--17-15-15-15-15-15-15-15-|-12-12-12-12-12-12-12-12-|-12/13-13-13-13-13-13-13--|
B|--x--x--x--x--x--x--x--x--|-x--x--x--x--x--x--x--x--|-x--x--x--x--x--x--x--x---|
G|--14-12-12-12-12-12-12-12-|-9--9--9--9--9--9--9--9--|-9//10-10-10-10-10-10-10--|
D|--------------------------|-------------------------|--------------------------|
A|--------------------------|-------------------------|--------------------------|
E|--------------------------|-------------------------|--------------------------|

e|--13-12-12-12-12\10-10-10-|-10-10-10-10-10\8-8-8-|-8/10-10-10-10-10-10-10--|
B|--x--x--x--x--x--x--x--x--|-x--x--x--x--x--x-x-x-|-x-x--x--x--x--x--x--x---|
G|--10-9--9--9--9\\7--7--7--|-7--7--7--7--7\\5-5-5-|-5/7--7--7--7--7--7--7---|
D|--------------------------|----------------------|-------------------------|
A|--------------------------|----------------------|-------------------------|
E|--------------------------|----------------------|-------------------------|

e|--10-12-12-12-12-12-12-12-|-12/13~-------|
B|--x--x--x--x--x--x--x--x--|-x--x---------|
G|--7--9--9--9--9--9--9--9--|-9//10~-------|
D|--------------------------|--------------|
A|--------------------------|--------------|
E|--------------------------|--------------|

========================
/ - slide up
\ - slide down 
x - mute note 
[] - natural harmonic 
w - whammy bar 
~ - sustain 
========================

NOTE: to get the muted sound during the verses, palm mute the dead notes 
Suggest correction
Creating personal tab
Creating personal tab
You can edit any tab online and save it as your Personal.

You can edit, replace or remove any tab part or add personal notes – all changes will be seen only by you.

Personal tabs can be accessed anytime from any device, even offline.
Learn more »
Give kudos to tab author, rate the tab!
1 2 3 4 5
comments
print report bad tab
guest
You may want to rate the tab now too:
select rating
Wanna post a correction for this tab? Suggest correction