Oops, an error
Loading. Please wait.

Ive Made Enough Friends tab

28 views 1 this week
no commentswrite comment
1 2 3 4 5
3 more votes to show rating
add to favorites
×
Save as Personal and add changes to this tab that will be seen only by you. Learn more ›
×
You can save this tab as Personal to edit and correct it or add notes. All changes will be seen only by you. Learn more »
launch autoscroll
font size
0
reset
how to read this tab
guitar tuner
edit
Autoscroll
slow
fast
+/-
esc
set tempo
stop
Author
Difficulty
The Wrens - I've Made Enough Friends - guitar tab

[Intro]
Guitar 1:

e|------------15----15----15--------15----15----15--------15----15-----|
B|------15-------15----15------15------15----15------15------15----15--|
G|---------------------------------------------------------------------|
D|---------------------------------------------------------------------|
A|---------------------------------------------------------------------|
E|---------------------------------------------------------------------|

Guitar 2:

e|------------17----17----17--------17----17----17--------17----17-----|
B|------17-------17----17------17------17----17------17------17----17--|
G|---------------------------------------------------------------------|
D|---------------------------------------------------------------------|
A|---------------------------------------------------------------------|
E|---------------------------------------------------------------------|

Guitar 3:

e|---------------------------------------------------------------------|
B|------------10----10----10--------10----10----10--------10----10-----|
G|------12-------12----12------12------12----12------12------12----12--|
D|---------------------------------------------------------------------|
A|---------------------------------------------------------------------|
E|---------------------------------------------------------------------|

[Verse 1]
Guitar 1:

e|----------------------------------------------12--------12----12----12--------12----12-----|
B|--13--------13----13----12--------12----12-------------------------------------------------|
G|-------14------14----14------12------12----12------12------12----12------14------14----14--|
D|-------------------------------------------------------------------------------------------|
A|-------------------------------------------------------------------------------------------|
E|-------------------------------------------------------------------------------------------|-|
 |                                                                                             |x2
e|---------------------------------------------------------------------------------------------|
B|--13--------13----13----13--------13----13----12--------12----12-------12----12----12----12--|
G|-------16------16----16------16------16----16------14------14----14-14----14----14----14-----|
D|---------------------------------------------------------------------------------------------|
A|---------------------------------------------------------------------------------------------|
E|---------------------------------------------------------------------------------------------|

Guitar 2:

e|-------------------------------------------------------------------------------------------|
B|--13--------13----13----13--------13----13----13--------13----13----13--------13----13-----|
G|-------14------14----14------14------14----14------12------12----12------12------12----12--|
D|-------------------------------------------------------------------------------------------|
A|-------------------------------------------------------------------------------------------|
E|-------------------------------------------------------------------------------------------|
 |                                                                                           |x2 
e|-----------------------------------------------------------------------------------------|-|
B|--12--------12----12----12--------12----12----10--------10----10-------8----8----8----8--|
G|-------12------12----12------12------12----12------12------12----12-11---11---11---11----|
D|-----------------------------------------------------------------------------------------|
A|-----------------------------------------------------------------------------------------|
E|-----------------------------------------------------------------------------------------|

Guitar 3:
                                                                      
e|------------------------------------------7-7-7-7-8-8-8-8-10-10-10-10--|
B|----------------------------------0-------x-x-x-x-x-x-x-x-x--x--x--x---|
G|--------------------------------------2---4-4-4-4-5-5-5-5-7--7--7--7---|
D|-----------------------------------------------------------------------|
A|-----------------------------------------------------------------------|
E|-----------------------------------------------------------------------|

e|-------------------------------------------------------------------|
B|--5-------5---5---5-------5---5---3-------3---3---3-------3---3----|
G|------7-----7---7-----7-----7---7-----5-----5---5-----5-----5---5--|
D|-------------------------------------------------------------------|
A|-------------------------------------------------------------------|
E|-------------------------------------------------------------------|
                                                                         
e|------------------------------------------7-7-7-7-8-8-8-8-10-10-10-10--|
B|--1-------1---1---1-------1---1---0-------x-x-x-x-x-x-x-x-x--x--x--x---|
G|------4-----4---4-----4-----4---4-----2---4-4-4-4-5-5-5-5-7--7--7--7---|
D|-----------------------------------------------------------------------|
A|-----------------------------------------------------------------------|
E|-----------------------------------------------------------------------|

[Chorus 1]
Guitar 1:

e|--------------------------------------------------------------------------------|
B|--12~--------------12~--------------12~----------------8--8--8--8--8--8--8--8---|
G|--14~--------------14~--------------14~----------------11-11-11-11-11-11-11-11--|
D|--------------------------------------------------------------------------------|
A|--------------------------------------------------------------------------------|x2
E|--------------------------------------------------------------------------------|

Guitar 2:

e|--0---0---0-0-0-0-0---0---0-0-0-0-3---3-----3-3-3---2-2-3-3-2-2-0--|
B|--1---1---1-1-1-0-0---0---0-0-0-0-3---3-----3-3-3---3-3-3-3-3-3-0--|
G|--2---2---2-2-2-0-0---0---0-0-0-0-0---0-----0-0-0---2-2-2-2-2-2-0--|
D|--2---2---2-2-2-0-2---2---2-2-2-0-0---0-----0-0-0---0-0-0-0-0-0-0--|
A|--0---0---0-0-0-0-2---2---2-2-2-0-2---2-----2-2-2------------------|x2
E|------------------0---0---0-0-0-0-3---3-----3-3-3------------------|

Guitar 3:

e|--8~~--------------10~--------------10~--------------------------------|
B|--10~--------------8~~--------------8~~---------------7-7-7-7-7-7-7-7--|
G|--9~~--------------9~~--------------9~~---------------9-9-9-9-9-9-9-9--|
D|--10~--------------10~--------------10~---------------7-7-7-7-7-7-7-7--|
A|-----------------------------------------------------------------------|x2
E|-----------------------------------------------------------------------|

[Verse 2]
Guitar 1:

e|----------------------------------------------12--------12----12----12--------12----12-----|
B|--13--------13----13----12--------12----12-------------------------------------------------|
G|-------14------14----14------12------12----12------12------12----12------14------14----14--|
D|-------------------------------------------------------------------------------------------|
A|-------------------------------------------------------------------------------------------|
E|-------------------------------------------------------------------------------------------|-|
 |                                                                                             |x2
e|---------------------------------------------------------------------------------------------|
B|--13--------13----13----13--------13----13----12--------12----12-------12----12----12----12--|
G|-------16------16----16------16------16----16------14------14----14-14----14----14----14-----|
D|---------------------------------------------------------------------------------------------|
A|---------------------------------------------------------------------------------------------|
E|---------------------------------------------------------------------------------------------|

Guitar 2:

e|-------------------------------------------------------------------------------------------|
B|--13--------13----13----13--------13----13----13--------13----13----13--------13----13-----|
G|-------14------14----14------14------14----14------12------12----12------12------12----12--|
D|-------------------------------------------------------------------------------------------|
A|-------------------------------------------------------------------------------------------|
E|-------------------------------------------------------------------------------------------|
 |                                                                                           |x2 
e|-----------------------------------------------------------------------------------------|-|
B|--12--------12----12----12--------12----12----10--------10----10-------8----8----8----8--|
G|-------12------12----12------12------12----12------12------12----12-11---11---11---11----|
D|-----------------------------------------------------------------------------------------|
A|-----------------------------------------------------------------------------------------|
E|-----------------------------------------------------------------------------------------|

Guitar 3:

e|-------------------------------------------------------------------|
B|--5-------5---5---5-------5---5---3-------3---3---3-------3---3----|
G|------7-----7---7-----7-----7---7-----5-----5---5-----5-----5---5--|
D|-------------------------------------------------------------------|
A|-------------------------------------------------------------------|
E|-------------------------------------------------------------------|---|
                                                                         |x2
e|------------------------------------------7-7-7-7-8-8-8-8-10-10-10-10--|
B|--1-------1---1---1-------1---1---0-------x-x-x-x-x-x-x-x-x--x--x--x---|
G|------4-----4---4-----4-----4---4-----2---4-4-4-4-5-5-5-5-7--7--7--7---|
D|-----------------------------------------------------------------------|
A|-----------------------------------------------------------------------|
E|-----------------------------------------------------------------------|

[Chorus 2]
Guitar 1:

e|--------------------------------------------------------------------------------|
B|--12~--------------12~--------------12~----------------8--8--8--8--8--8--8--8---|
G|--14~--------------14~--------------14~----------------11-11-11-11-11-11-11-11--|
D|--------------------------------------------------------------------------------|
A|--------------------------------------------------------------------------------|x2
E|--------------------------------------------------------------------------------|

e|------------------------------------------------------------------------------|
B|------12~------12~------12~------12~------13~------13~------13~--13-13-13-13--|
G|------14~------14~------14~------14~------16~------16~------16~--16-16-16-16--|
D|------------------------------------------------------------------------------|
A|------------------------------------------------------------------------------|
E|------------------------------------------------------------------------------|

Guitar 2:

e|--0---0---0-0-0-0-0---0---0-0-0-0-3---3-----3-3-3---2-2-3-3-2-2-0--|
B|--1---1---1-1-1-0-0---0---0-0-0-0-3---3-----3-3-3---3-3-3-3-3-3-0--|
G|--2---2---2-2-2-0-0---0---0-0-0-0-0---0-----0-0-0---2-2-2-2-2-2-0--|
D|--2---2---2-2-2-0-2---2---2-2-2-0-0---0-----0-0-0---0-0-0-0-0-0-0--|
A|--0---0---0-0-0-0-2---2---2-2-2-0-2---2-----2-2-2------------------|x2
E|------------------0---0---0-0-0-0-3---3-----3-3-3------------------|

e|--0---0---0-0-0-0-0---0---0-0-0-0-0---0---0-0-0-0-0---0---0-0-0-0--|
B|--1---1---1-1-1-1-1---1---1-1-1-0-1---1---1-1-1-1-1---1---1-1-1-0--|
G|--2---2---2-2-2-2-2---2---2-2-2-0-0---0---0-0-0-0-0---0---0-0-0-0--|
D|--2---2---2-2-2-2-2---2---2-2-2-0-2---2---2-2-2-2-2---2---2-2-2-0--|
A|--0---0---0-0-0-0-0---0---0-0-0-0-3---3---3-3-3-3-3---3---3-3-3-0--|
E|-------------------------------------------------------------------|

Guitar 3:

e|--8~~--------------10~--------------10~--------------------------------|
B|--10~--------------8~~--------------8~~---------------7-7-7-7-7-7-7-7--|
G|--9~~--------------9~~--------------9~~---------------9-9-9-9-9-9-9-9--|
D|--10~--------------10~--------------10~---------------7-7-7-7-7-7-7-7--|
A|-----------------------------------------------------------------------|x2
E|-----------------------------------------------------------------------|

e|--8~~------8~~------8~~------8~~------10~------10~------10~------10~-------|
B|--10~------10~------10~------10~------8~~------8~~------8~~------8~~-------|
G|--9~~------9~~------9~~------9~~------9~~------9~~------9~~------9~~-------|
D|--10~------10~------10~------10~------10~~-----10~------10~------10~-------|
A|---------------------------------------------------------------------------|
E|---------------------------------------------------------------------------|

[Verse 3]
Guitar 1:

e|--0-0---0---0---0-0-0---0---0---0-0---0-----0-0-0-0---0-0-0-0-0-0--|
B|--1-1---1---1---1-1-1---1---1---1-1---1-----1-1-1-1---1-1-1-1-1-1--|
G|--2-2---2---2---2-2-2---2---2---2-0---0-----0-0-0-0---0-0-0-0-0-0--|
D|--2-2---2---2---2-2-2---2---2---2-2---2-----2-2-2-2---2-2-2-2-2-2--|
A|--0-0---0---0---0-0-0---0---0---0-3---3-----3-3-3-3---3-3-3-3-3-3--|
E|-------------------------------------------------------------------|
                                                        * * * * * *

e|--3---3-----3-3-3-3---3-----3-3-3-2---2-----2-2-2-2---2-----2-2-2--|
B|--3---3-----3-3-3-3---3-----3-3-3-3---3-----3-3-3-3---3-----3-3-3--|
G|--0---0-----0-0-0-0---0-----0-0-0-2---2-----2-2-2-2---2-----2-2-2--|  
D|--0---0-----0-0-0-0---0-----0-0-0-0---0-----0-0-0-0---0-----0-0-0--|
A|--2---2-----2-2-2-2---2-----2-2-2----------------------------------|
E|--3---3-----3-3-3-3---3-----3-3-3----------------------------------|
   
e|--0---0-----0-0-0-0---0-----0-0-0-0---0-----0-0-0-0---0-----0-0-0--|
B|--1---1-----1-1-1-1---1-----1-1-1-1---1-----1-1-1-1---1-----1-1-1--|
G|--2---2-----2-2-2-2---2-----2-2-2-0---0-----0-0-0-0---0-----0-0-0--|
D|--2---2-----2-2-2-2---2-----2-2-2-2---2-----2-2-2-2---2-----2-2-2--|
A|--0---0-----0-0-0-0---0-----0-0-0-3---3-----3-3-3-3---3-----3-3-3--|
E|-------------------------------------------------------------------|
  
e|--3---3-----3-3-3-3---3-----3-3-3-2---2-----2-2-2-2---2-----2-2-2--|
B|--3---3-----3-3-3-3---3-----3-3-3-3---3-----3-3-3-3---3-----3-3-3--|
G|--0---0-----0-0-0-0---0-----0-0-0-2---2-----2-2-2-2---2-----2-2-2--|  
D|--0---0-----0-0-0-0---0-----0-0-0-0---0-----0-0-0-0---0-----0-0-0--|
A|--2---2-----2-2-2-2---2-----2-2-2----------------------------------|
E|--3---3-----3-3-3-3---3-----3-3-3----------------------------------|
                                        
Guitar 2:

e|--5-5-5-5-7-7-7-7-8-8-8-8-10-10-10-10----------------------------------|
B|--x-x-x-x-x-x-x-x-x-x-x-x-x--x--x--x----3-3---3---3---3---3---3---3----|
G|--2-2-2-2-4-4-4-4-5-5-5-5-7--7--7--7--------5---5---5---5---5---5---5--|
D|-----------------------------------------------------------------------|
A|-----------------------------------------------------------------------|
E|-----------------------------------------------------------------------|

e|-------------------------------------------------------------------|
B|--5-------5-----5-----5-----5-----3-----3-----3-----3-----3-----3--|
G|----7-7-7---7-7---7-7---7-7---7-7---5-5---5-5---5-5---5-5---5-5----|
D|-------------------------------------------------------------------|
A|-------------------------------------------------------------------|
E|-------------------------------------------------------------------|

e|------------------------------------------7-7-7-7-8-8-8-8-10-10-10-10--|
B|--1-1-1-1-1-1-1-1-1-1-1-1-1-1-1-1-0---0---x-x-x-x-x-x-x-x-x--x--x--x---|
G|--4-4-4-4-4-4-4-4-4-4-4-4-4-4-4-4---2---2-4-4-4-4-5-5-5-5-7--7--7--7---|
D|-----------------------------------------------------------------------|
A|-----------------------------------------------------------------------|
E|-----------------------------------------------------------------------|

Guitar 3:

e|------10----10----10----10----10----10----10-----|
B|---------13----13----13----13----13----13----13--|
G|-------------------------------------------------|
D|-------------------------------------------------|
A|-------------------------------------------------|
E|-------------------------------------------------|

[Chorus 3]
Guitar 1:

e|--0---0---0-0-0-0-0---0---0-0-0-0-3---3-----3-3-3---2-2-3-3-2-2-0--|
B|--1---1---1-1-1-0-0---0---0-0-0-0-3---3-----3-3-3---3-3-3-3-3-3-0--|
G|--2---2---2-2-2-0-0---0---0-0-0-0-0---0-----0-0-0---2-2-2-2-2-2-0--|
D|--2---2---2-2-2-0-2---2---2-2-2-0-0---0-----0-0-0---0-0-0-0-0-0-0--|
A|--0---0---0-0-0-0-2---2---2-2-2-0-2---2-----2-2-2------------------|x2
E|------------------0---0---0-0-0-0-3---3-----3-3-3------------------|

e|--0---0---0-0-0-0-0---0---0-0-0-0-0---0---0-0-0-0-0---0---0-0-0-0--|
B|--1---1---1-1-1-1-1---1---1-1-1-0-1---1---1-1-1-1-1---1---1-1-1-1--|
G|--2---2---2-2-2-2-2---2---2-2-2-0-0---0---0-0-0-0-0---0---0-0-0-0--|
D|--2---2---2-2-2-2-2---2---2-2-2-0-2---2---2-2-2-2-2---2---2-2-2-2--|
A|--0---0---0-0-0-0-0---0---0-0-0-0-3---3---3-3-3-3-3---3---3-3-3-3--|
E|-------------------------------------------------------------------|

e|--0~--|
B|--1~--|
G|--0~--|
D|--2~--|
A|--3~--|
E|------|

Guitar 2:

e|-------------------------------------------------------------------|
B|------------------------------------------------1---1---1----------|
G|--------------------------------------0---7\5\4---4---4---4-2-0~---|
D|-------------------------------------------------------------------|
A|-------------------------------------------------------------------|x2 
E|-------------------------------------------------------------------|

e|-------------------------------------------------------------------|
B|--1-------1---1---1-------1---1---1-------1---1---1-------1---1----|
G|------4-----4---4-----4-----4---4-----4-----4---4-----4-----4---4--|
D|-------------------------------------------------------------------|
A|-------------------------------------------------------------------|
E|-------------------------------------------------------------------|

e|--------|
B|--1-----|
G|----4~--|
D|--------|
A|--------|
E|--------|

[Outro]
Guitar 1:

e|--15--------15----15----15--------15----15----15--------15----15-----|
B|-------15------15----15------15------15----15------15------15----15--|
G|---------------------------------------------------------------------|
D|---------------------------------------------------------------------|
A|---------------------------------------------------------------------|
E|---------------------------------------------------------------------|

Guitar 2:

e|--17--------17----17----17--------17----17----17--------17----17-----|
B|-------17------17----17------17------17----17------17------17----17--|
G|---------------------------------------------------------------------|
D|---------------------------------------------------------------------|
A|---------------------------------------------------------------------|
E|---------------------------------------------------------------------|

Guitar 3:

e|---------------------------------------------------------------------|
B|--10--------10----10----10--------10----10----10--------10----10-----|
G|------12-------12----12------12------12----12------12------12----12--|
D|---------------------------------------------------------------------|
A|---------------------------------------------------------------------|
E|---------------------------------------------------------------------|

************************************

| x   Dead note
| *   Palm mute 
| /   Slide up
| \   Slide down
| ~   Sustain

************************************

            
            
Suggest correction
Creating personal tab
Creating personal tab
You can edit any tab online and save it as your Personal.

You can edit, replace or remove any tab part or add personal notes – all changes will be seen only by you.

Personal tabs can be accessed anytime from any device, even offline.
Learn more »
Give kudos to tab author, rate the tab!
1 2 3 4 5
comments
print report bad tab
guest
You may want to rate the tab now too:
select rating
Wanna post a correction for this tab? Suggest correction