Oops, an error
Loading. Please wait.

Joneses Rule Of Sport tab

28 views 1 this week
no commentswrite comment
1 2 3 4 5
3 more votes to show rating
add to favorites
×
Save as Personal and add changes to this tab that will be seen only by you. Learn more ›
×
You can save this tab as Personal to edit and correct it or add notes. All changes will be seen only by you. Learn more »
launch autoscroll
font size
0
reset
how to read this tab
guitar tuner
edit
Autoscroll
slow
fast
+/-
esc
set tempo
stop
Author
Difficulty
[Intro]
(Guitar 1)
e|-----------------------------------------|
B|-----------------------------------------|
G|--6-7-6---9-6---6-7-6---7-7-7-7-7-5-5-5--|
D|--7-7-7---7-7---7-7-7---7-7-7-7-7-7-7-7--|
A|-----------------------------------------|(x2)
E|-----------------------------------------|

(Guitar 2)
e|--7--7--7--7--7--7--7--7--17-17-17-17-17-17-17-17-15-15-15-15-15-15-15-15-15-15-15-15-15-15-15-15--|
B|--10-10-10-10-10-10-10-10-20-20-20-20-20-20-20-20-19-19-19-19-19-19-19-19-18-18-18-18-18-18-18-18--|
G|---------------------------------------------------------------------------------------------------|
D|---------------------------------------------------------------------------------------------------|
A|---------------------------------------------------------------------------------------------------|
E|---------------------------------------------------------------------------------------------------|

e|--7--7--7--7--7--7--7--7--5-----/17-17-17-17-17-15-15-15-15-15-15-15-15-15-15-15-15-15-15-15-15--|
B|--10-10-10-10-10-10-10-10-8-----/20-20-20-20-20-19-19-19-19-19-19-19-19-18-18-18-18-17-17-17-17--|
G|-------------------------------------------------------------------------------------------------|
D|-------------------------------------------------------------------------------------------------|
A|-------------------------------------------------------------------------------------------------|
E|-------------------------------------------------------------------------------------------------|

(Guitar 3)
e|-------------------------------------------------------------------|
B|-------------------------------------------------------------------|
G|-------------------------------------------------------------------|
D|--7-7-7-7-7-7-7-7-5-5-5-5-5-5-5-5-4-4-4-4-4-4-4-4-3-3-3-3-3-3-3-3--|
A|--x-x-x-x-x-x-x-x-x-x-x-x-x-x-x-x-x-x-x-x-x-x-x-x-x-x-x-x-x-x-x-x--|(x2)
E|--5-5-5-5-5-5-5-5-3-3-3-3-3-3-3-3-2-2-2-2-2-2-2-2-1-1-1-1-1-1-1-1--|

[Verse 1]
(Guitar 1)
e|-------------------------------|
B|------------------------0-0-0--|
G|--2---2-5---5-4---4-2---0-0-0--|
D|--2---2-5---5-4---4-3----------|
A|-------------------------------|(x2)
E|-------------------------------|

e|-------------------------------------------------------------------|
B|------------------------------------------------------------0-0-0--| (<- enter guitar 2)
G|--2-2-2-2-2-2-2-2-5-5-5-5-5-5-5-5-4-4-4-4-4-4-4-4-2-2-2-2-2-0-0-0--|
D|--2-2-2-2-2-2-2-2-5-5-5-5-5-5-5-5-4-4-4-4-4-4-4-4-3-3-3-3-3--------|
A|-------------------------------------------------------------------|
E|-------------------------------------------------------------------|

e|-------------------------------------------------------------------|
B|------------------------------------------------------------0------|
G|--2-2-2-2-2-2-2-2-5-5-5-5-5-5-5-5-4-4-4-4-4-4-4-4-2-2-2-2-2-0------|
D|--2-2-2-2-2-2-2-2-5-5-5-5-5-5-5-5-4-4-4-4-4-4-4-4-3-3-3-3-3--------|
A|-------------------------------------------------------------------|
E|-------------------------------------------------------------------|

(Guitar 2)
e|-----------------------------------------------------------------------------------------------|
B|--10---10---10---10---13----13----13----13----12----12----12----12----10----10----10----10-----|
G|-----9----9----9----9----12----12----12----12----12----12----12----12----10----10----10----10--|
D|-----------------------------------------------------------------------------------------------|
A|-----------------------------------------------------------------------------------------------|(x2)
E|-----------------------------------------------------------------------------------------------|

[Chorus 1]
(Guitar 1)
e|---------------------------------------|
B|---------------------------------------|
G|--14---14---10---10-----7-7-7-7-7-7-7--|
D|--14---14---10---10-----7-7-7-7-7-7-7--|
A|--12---12---8----8------5-5-5-5-5-5-5--|(x4)
E|---------------------------------------|

(Guitar 2)
e|--17---17----13---13------13-14-14-14-14-14-14--|
B|--20---20----17---17------12-13-13-13-13-13-13--|
G|------------------------------------------------|
D|------------------------------------------------|
A|------------------------------------------------|(x4)
E|------------------------------------------------|

[Instrumental]
(Guitar 1)
e|-----------------------------------------|
B|-----------------------------------------|
G|--6-7-6---9-6---6-7-6---7-7-7-7-9-9-9-9--|
D|--7-7-7---7-7---7-7-7---7-7-7-7-7-7-7-7--|
A|-----------------------------------------|
E|-----------------------------------------|

(Guitar 2)
e|-------------------------------------------------------------------------------------------------|
B|--10h12-10---10h12-10-9-10-10-10-10-10-10-10-10-8--8--8--8--8--8--8--8--8--8--8--8--8--8--8--8---|
G|------------------------12-12-12-12-12-12-12-12-11-11-11-11-11-11-11-11-10-10-10-10-10-10-10-10--|
D|-------------------------------------------------------------------------------------------------|
A|-------------------------------------------------------------------------------------------------|
E|-------------------------------------------------------------------------------------------------|

(Guitar 3)
e|-------------------------------------------------------------------|
B|-------------------------------------------------------------------|
G|-------------------------------------------------------------------|
D|--7-7-7-7-7-7-7-7-5-5-5-5-5-5-5-5-4-4-4-4-4-4-4-4-3-3-3-3-3-3-3----|
A|--x-x-x-x-x-x-x-x-x-x-x-x-x-x-x-x-x-x-x-x-x-x-x-x-x-x-x-x-x-x-x----|
E|--5-5-5-5-5-5-5-5-3-3-3-3-3-3-3-3-2-2-2-2-2-2-2-2-1-1-1-1-1-1-1----|

[Verse 2]
(Guitar 1)
e|-------------------------------|
B|------------------------0-0-0--| 
G|--2---2-5---5-4---4-2---0-0-0--|
D|--2---2-5---5-4---4-3----------|
A|-------------------------------|(x2)
E|-------------------------------|

e|-------------------------------------------------------------------|
B|------------------------------------------------------------0-0-0--| 
G|--2-2-2-2-2-2-2-2-5-5-5-5-5-5-5-5-4-4-4-4-4-4-4-4-2-2-2-2-2-0-0-0--|
D|--2-2-2-2-2-2-2-2-5-5-5-5-5-5-5-5-4-4-4-4-4-4-4-4-3-3-3-3-3--------|
A|-------------------------------------------------------------------|
E|-------------------------------------------------------------------|

e|-------------------------------------------------------------------|
B|------------------------------------------------------------0------|
G|--2-2-2-2-2-2-2-2-5-5-5-5-5-5-5-5-4-4-4-4-4-4-4-4-2-2-2-2-2-0------|
D|--2-2-2-2-2-2-2-2-5-5-5-5-5-5-5-5-4-4-4-4-4-4-4-4-3-3-3-3-3--------|
A|-------------------------------------------------------------------|
E|-------------------------------------------------------------------|

(Guitar 2)
e|---------------------------------------------------------------------------------------------------|
B|--12-12-12-12-12-12-12-12-10-10-10-10-10-10-10-10-8--8--8--8--8--8--8--8--8--8--8--8--8--8--8--8---|(x2)
G|--14-14-14-14-14-14-14-14-12-12-12-12-12-12-12-12-11-11-11-11-11-11-11-11-10-10-10-10-10-10-10-10--|
D|---------------------------------------------------------------------------------------------------|
A|---------------------------------------------------------------------------------------------------|
E|---------------------------------------------------------------------------------------------------|

e|-----------------------------------------------------------------------------------------------|
B|--10---10---10---10---13----13----13----13----12----12----12----12----10----10----10----10-----|
G|-----9----9----9----9----12----12----12----12----12----12----12----12----10----10----10----10--|
D|-----------------------------------------------------------------------------------------------|
A|-----------------------------------------------------------------------------------------------|(x2)
E|-----------------------------------------------------------------------------------------------|
  
[Chorus 2]
(Guitar 1)
e|---------------------------------------|
B|---------------------------------------|
G|--14---14---10---10-----7-7-7-7-7-7-7--|
D|--14---14---10---10-----7-7-7-7-7-7-7--|
A|--12---12---8----8------5-5-5-5-5-5-5--|(x4)
E|---------------------------------------|

(Guitar 2)
e|--17---17----13---13------13-14-14-14-14-14-14--|
B|--20---20----17---17------12-13-13-13-13-13-13--|
G|------------------------------------------------|
D|------------------------------------------------|
A|------------------------------------------------|(x4)
E|------------------------------------------------|

[Bridge]
(Guitar 1)
e|-------------------------------------------------------------------|
B|-------------------------------------------------------------------|
G|-------------------------------------------------------------------|
D|--4-4-4-4-4-4-4-4-3-3-3-3-3-3-3-3-2-2-2-2-2-2-2-2-2-2-2-2-2-2-2-2--|
A|--4-4-4-4-4-4-4-4-3-3-3-3-3-3-3-3-2-2-2-2-2-2-2-2-2-2-2-2-2-2-2-2--|(x2)
E|--2-2-2-2-2-2-2-2-1-1-1-1-1-1-1-1-0-0-0-0-0-0-0-0-0-0-0-0-0-0-0-0--|

(Guitar 2)
e|-------------------------------------------------------------------|
B|-------------------------------------------------------------------|
G|-------------------------------------------------------------------|
D|--4-4-4-4-4-4-4-4-5-5-5-5-5-5-5-5-6-6-6-6-6-6-6-6-7-7-7-7-9-9-9-9--|
A|--x-x-x-x-x-x-x-x-x-x-x-x-x-x-x-x-x-x-x-x-x-x-x-x-x-x-x-x-x-x-x-x--|
E|--2-2-2-2-2-2-2-2-3-3-3-3-3-3-3-3-4-4-4-4-4-4-4-4-5-5-5-5-7-7-7-7--|

e|----------------------------------------------------------------------------------------------|
B|----------------------------------------------------------------------------------------------|
G|--11-11-11-11-11-11-11-11-12-12-12-12-12-12-12-12-13-13-13-13-13-13-13-13-14-14-16////21\\\\--|
D|--x--x--x--x--x--x--x--x--x--x--x--x--x--x--x--x--x--x--x--x--x--x--x--x--x--x--x-----x-------|
A|--9--9--9--9--9--9--9--9--10-10-10-10-10-10-10-10-11-11-11-11-11-11-11-11-12-12-14////19\\\\--|
E|----------------------------------------------------------------------------------------------|

[Instrumental]
(Guitar 1)
e|-----------------------------------------|
B|-----------------------------------------|
G|--6-7-6---9-6---6-7-6---7-7-7-7-7-5-5-5--|
D|--7-7-7---7-7---7-7-7---7-7-7-7-7-7-7-7--|
A|-----------------------------------------|
E|-----------------------------------------|

e|----------------------------|
B|----------------------------|
G|--6-7-6---9-6---6-7-6---7~--|
D|--7-7-7---7-7---7-7-7---7~--|
A|----------------------------|
E|----------------------------|

(Guitar 2)
e|---------------------------------------------------------------------------------------------------|
B|--12-12-12-12-12-12-12-12-10-10-10-10-10-10-10-10-8--8--8--8--8--8--8--8--8--8--8--8--8--8--8--8---|
G|--14-14-14-14-14-14-14-14-12-12-12-12-12-12-12-12-11-11-11-11-11-11-11-11-10-10-10-10-10-10-10-10--|
D|---------------------------------------------------------------------------------------------------|
A|---------------------------------------------------------------------------------------------------|
E|---------------------------------------------------------------------------------------------------|

e|-------------------------------------------------------------------------------------------|
B|--10-10-10-10-10-10-10-10-8--8--8--8--8--8--8--8--7--7--7--7--7--7--7--7--6-6-6-6-6-6-6-6--|
G|--12-12-12-12-12-12-12-12-11-11-11-11-11-11-11-11-10-10-10-10-10-10-10-10-9-9-9-9-9-9-9-9--|
D|-------------------------------------------------------------------------------------------|
A|-------------------------------------------------------------------------------------------|
E|-------------------------------------------------------------------------------------------|

(Guitar 3)
e|-------------------------------------------------------------------|
B|-------------------------------------------------------------------|
G|-------------------------------------------------------------------|
D|--7-7-7-7-7-7-7-7-5-5-5-5-5-5-5-5-4-4-4-4-4-4-4-4-3-3-3-3-3-3-3-3--|
A|--x-x-x-x-x-x-x-x-x-x-x-x-x-x-x-x-x-x-x-x-x-x-x-x-x-x-x-x-x-x-x-x--|(x2)
E|--5-5-5-5-5-5-5-5-3-3-3-3-3-3-3-3-2-2-2-2-2-2-2-2-1-1-1-1-1-1-1-1--|

[Chorus 3]
(Guitar 1)
e|---------------------------------------|
B|---------------------------------------|
G|--14---14---10---10-----7-7-7-7-7-7-7--|
D|--14---14---10---10-----7-7-7-7-7-7-7--|
A|--12---12---8----8------5-5-5-5-5-5-5--|(x16)
E|---------------------------------------|

e|------------------------------|
B|------------------------------|
G|--14~~~~----------------------|
D|--14~~~~------------14-12-14--|
A|--12~~~~----------------------|
E|------------------------------|

(Guitar 2)
e|--17---17----13---13------13-14-14-14-14-14-14--|
B|--20---20----17---17------12-13-13-13-13-13-13--|
G|------------------------------------------------|
D|------------------------------------------------|
A|------------------------------------------------|(x16)
E|------------------------------------------------|

(Guitar 3)
e|-----------------------------------|
B|-----------------------------------|
G|--2-2-2-2-4-4-4-4-5-5-5-5-5-5-5-5--|
D|--x-x-x-x-x-x-x-x-x-x-x-x-x-x-x-x--|
A|--0-0-0-0-2-2-2-2-3-3-3-3-3-3-3-3--|(x2)
E|-----------------------------------|

e|---------------------------------------------------------------------------|
B|---------------------------------------------------------------------------|
G|--2-2-2-2-4-4-4-4-5-5-5-5-7-7-7-7-9-9-9-9-9-9-9-9-19-19-19-17-17\16-16-17--|
D|--x-x-x-x-x-x-x-x-x-x-x-x-x-x-x-x-x-x-x-x-x-x-x-x-x--x--x--x--x--x--x--x---|
A|--0-0-0-0-2-2-2-2-3-3-3-3-5-5-5-5-7-7-7-7-7-7-7-7-17-17-17-15-15\14-14-15--|
E|---------------------------------------------------------------------------|

e|-------------------------------------------------|
B|-------------------------------------------------|
G|--19\17-17\16-16---16-16-16-17-16---16-16-16-16--|
D|--x--x--x--x--x----x--x--x--x--x----x--x--x--x---|
A|--17\15-15\14-14---14-14-14-15-14---14-14-14-14--|
E|-------------------------------------------------|

e|---------------------------------------------------|
B|---------------------------------------------------|
G|--17-16-17-16-17-16-17/19-19-19-19-19-19-19-19-19--|
D|--x--x--x--x--x--x--x--x--x--x--x--x--x--x--x--x---|
A|--15-14-15-14-15-14-15/17-17-17-17-17-17-17-17-17--|(x2)
E|---------------------------------------------------|

e|---------------------------------------------------|
B|---------------------------------------------------|
G|--14-14-14-14-16-16-16-16-17-17-17-17-17-17-17-17--|
D|--x--x--x--x--x--x--x--x--x--x--x--x--x--x--x--x---|
A|--12-12-12-12-14-14-14-14-15-15-15-15-15-15-15-15--|(x3)
E|---------------------------------------------------|

e|---------------------------------------------------|
B|---------------------------------------------------|
G|--17-16-17-16-17-16-17/19-19-19-19-19-19-19-19-19--|
D|--x--x--x--x--x--x--x--x--x--x--x--x--x--x--x--x---|
A|--15-14-15-14-15-14-15/17-17-17-17-17-17-17-17-17--|(x2)
E|---------------------------------------------------|

e|--0~--|
B|--0~--|
G|--2~--|
D|--0~--|
A|--0~--|
E|------|



************************************

| /  Slide up
| x  Dead note
| h  Hammer-on
| \  Slide down
| ~  Vibrato

************************************

            
            
Suggest correction
Creating personal tab
Creating personal tab
You can edit any tab online and save it as your Personal.

You can edit, replace or remove any tab part or add personal notes – all changes will be seen only by you.

Personal tabs can be accessed anytime from any device, even offline.
Learn more »
Give kudos to tab author, rate the tab!
1 2 3 4 5
comments
print report bad tab
guest
You may want to rate the tab now too:
select rating
Wanna post a correction for this tab? Suggest correction