Oops, an error
Loading. Please wait.

North To Nothing bass

19 views 3 this week
no commentswrite comment
1 2 3 4 5
3 more votes to show rating
add to favorites
×
Save as Personal and add changes to this tab that will be seen only by you. Learn more ›
×
You can save this tab as Personal to edit and correct it or add notes. All changes will be seen only by you. Learn more »
launch autoscroll
font size
0
reset
guitar tuner
edit
Autoscroll
slow
fast
+/-
esc
set tempo
stop
[Intro]
G|---------------------------------------------------------------------------------------------------|
D|---------------------------------------------------------------------------------------------------|
A|--7-7-7-7-7-7-7-7-7-7-7-7-7-7-7-7-6-6-6-6-6-6-6-6-6-6-6-6-6-6-6-6-9-9-9-9-9-9-9-9-9-9-9-9-9-9-9-9--|
E|---------------------------------------------------------------------------------------------------|

G|-----------------------------------|
D|-----------------------------------|
A|--7-7-7-7-7-7----------------------|
E|--------------7-7-7-7-7-7-7-7-7-7--|

[Instrumental]
G|-------------------------------------------------------------------|
D|-------------------------------------------------------------------|
A|-------------------------------------------------------------------|
E|--2-2-2-2-2-2-2-4-5-5-5-5-5-5-5-4-0-0-0-0-0-0-0-0-7-7-7-7-7-7-7-7--|

G|-------------------------------------------------------------------|
D|----------------6-7-7-7-7-7-7-7-9-6-----------6-7------------------|
A|--9-9-9-9-9-9-9---------------------7-7-7-7-7-----9----------------|
E|----------------------------------------------------7-7-7-7-7-7-7--|

[Verse 1]
G|---------------------------------------------------------------------------------------------------|
D|---------------------------------------------------------------------------------------------------|
A|---------------------------------------------------------------------------------------------------|
E|--0-0-0-0-0-0-0-0-0-0-0-0-0-0-0-0-7-7-7-7-7-7-7-7-7-7-7-7-6-6-6-6-5-5-5-5-5-5-5-5-5-5-5-5-5-5-5-5--|

G|-----------------------------|
D|-----------------------------|
A|-----------------------------|
E|--0-0-0-0-0-0-0-0-7-7-7-7-7--|

G|---------------------------------------------------------------------------------------------------|
D|---------------------------------------------------------------------------------------------------|
A|--7-----7---7---7-7-----7---7---7------------------------------------------------------------------|
E|----------------------------------7-----7---7--7-7------6---6---6-5-----5---5---5-5-----5---5---5--|

G|-----------------------------------|
D|-----------------------------------|
A|--7-----7---7---7---------------6--|
E|------------------7-----7-7-7-9----|

G|---------------------------------------------------------------------------------------------------|
D|---------------------------------------------------------------------------------------------------|
A|--7-7-7-7-7-7-7-7-7-7-7-7-7-7-7-7-6-6-6-6-6-6-6-6-6-6-6-6-6-6-6-6-9-9-9-9-9-9-9-9-9-9-9-9-9-9-9-9--|
E|---------------------------------------------------------------------------------------------------|

G|-------------------------------|
D|-------------------------------|
A|--7-7-7-7-7-7-7-7--------------|
E|------------------7-7-7-7-7-7--|

[Pre-chorus 1]
G|--------------------------------------------------------------------------|
D|----------11-11-------------10-10-10-----------10-10-10-10----------------|
A|--------------------------------------------------------------------------|
E|--9-9-9-9-------9-9---8-8-8------------8-8-8-8-------------8-7-7-7-7-7-5--|

[Chorus 1]
G|-------------------------------------------------------------------|
D|-------------------------------------------------------------------|
A|-------------------------------------------------------------------|
E|--2-2-2-2-2-2-2-4-5-5-5-5-5-5-5-4-0-0-0-0-0-0-0-0-7-7-7-7-7-7-7-7--|

G|-------------------------------------------------------------------|
D|----------------6-7-7-7-7-7-7-7-9-6-----------6-7------------------|
A|--9-9-9-9-9-9-9---------------------7-7-7-7-7-----9----------------|
E|----------------------------------------------------7-7-7-7-7-7-7--|

G|-------------------------------|
D|-------------------------------|
A|--7-7-7-7-7-7-7-7-7-7-7-7\\\\--|
E|-------------------------------|

[Verse 2]
G|---------------------------------------------------------------------------------------------------|
D|---------------------------------------------------------------------------------------------------|
A|---------------------------------------------------------------------------------------------------|
E|--0-0-0-0-0-0-0-0-0-0-0-0-0-0-0-0-7-7-7-7-7-7-7-7-7-7-7-7-6-6-6-6-5-5-5-5-5-5-5-5-5-5-5-5-5-5-5-5--|

G|-----------------------------|
D|-----------------------------|
A|-----------------------------|
E|--0-0-0-0-0-0-0-0-7-7-7-7-7--|

G|---------------------------------------------------------------------------------------------------|
D|---------------------------------------------------------------------------------------------------|
A|--7-----7---7---7-7-----7---7---7------------------------------------------------------------------|
E|----------------------------------7-----7---7--7-7------6---6---6-5-----5---5---5-5-----5---5---5--|

G|-----------------------------------|
D|-----------------------------------|
A|--7-----7---7---7---------------6--|
E|------------------7-----7-7-7-9----|

G|-----------------------------------------------------------------------------------------------------------|
D|-----------------------------------------------------------------------------------------------------------|
A|--7-7-7-7-7-7-7-7-7-7-7-7-7-7-7-7-6-6-6-6-6-6-6-6-6-6-6-6-6-6-6-6-9-9-9-9-9-9-9-9-12-12-12-12-12-12-12-12--|
E|-----------------------------------------------------------------------------------------------------------|

G|---------------------------------|
D|---------------------------------|
A|--7-7-7-7-7-7-7-7----------------|
E|------------------7-7-7-7-7-7-7--|

[Pre-chorus 2]
G|--------------------------------------------------------------------------|
D|----------11-11-------------10-10---10---------10-10---------------9------|
A|--------------------------------------------------------------------------|
E|--9-9-9-9-------9-9-9-8-8-8-------8----8-8-8-8-------8-8-8-7-7-7-7---7-5--|

[Chorus 2]
G|-------------------------------------------------------------------|
D|-------------------------------------------------------------------|
A|-------------------------------------------------------------------|
E|--2-2-2-2-2-2-2-4-5-5-5-5-5-5-5-4-0-0-0-0-0-0-0-0-7-7-7-7-7-7-7-7--|

G|---------------------------------------------------------------------|
D|----------------6-7-7-7-7-7-7-7-9-6-----------6-7--------------------|
A|--9-9-9-9-9-9-9---------------------7-7-7-7-7-----9------------------|
E|----------------------------------------------------7-7-7-7-7-7////--|

G|-------------------------------------------------------------------|
D|--------------------------1-1-2-2---------------------1-1-2-2-4-4--|
A|------0-0-2-2-4-4-0-0-4-4---------------------0-0-2-2--------------|(x2)
E|--2-2-----------------------------0-0-2-2-4-4----------------------|

[Pre-chorus 3]
G|--------6-6-6-------------7-7-------------4-4-------------7-7---------|
D|----------------------------------------------------------------------|
A|--4-4-4-------4-4-4-5-5-5-----5-5-2-2-2-2-----2-2-2-5-5-5-----5-5-0~--|
E|----------------------------------------------------------------------|

[Bridge]
G|-------------------------------------------------------------------|
D|-------------------------------------------------------------------|
A|--7-7-7-7-5-5-5-5-3-3-3-3-2-2-2-2-0-0-0-0-0-0-0-0-0-0-0-0----------|
E|----------------------------------------------------------4-4-4-4--|
                                                                      (x2)
G|-------------------------------------------------------------------|
D|-------------------------------------------------------------------|
A|--------------------------------------------------3-3-3-3-6-6-6-6--|
E|--3-3-3-3-1-1-1-1-0-0-0-0-0-0-0-0-1-1-1-1-1-1-1-1------------------|

G|--------------------------------------------------------------------|
D|------6---5-7-8-9-----6---5-7-8-9-----------------------------------|
A|--7-7---7---------7-7---7-------------------------------------------|
E|-----------------------------------0-0-4-0-3-5-6-7-0-0-4-0-3-5-6-7--|

G|-----------------------------------|
D|-----------------------------------|
A|-----------------------------------|
E|--9-9-9-9-9-9-9-9-7-7-7-7-7-7-7-5--|

[Final chorus]
G|-------------------------------------------------------------------|
D|-------------------------------------------------------------------|
A|-------------------------------------------------------------------|
E|--2-2-2-2-2-2-2-4-5-5-5-5-5-5-5-4-0-0-0-0-0-0-0-0-7-7-7-7-7-7-7-7--|

G|---------------------------------------------------------------------|
D|----------------6-7-7-7-7-7-7-7-9-6-----------6-7--------------------|
A|--9-9-9-9-9-9-9---------------------7-7-7-7-7-----9------------------|
E|----------------------------------------------------7-7-7-7-7-7////--|

G|-------------------------------------------------------------------|
D|--------------------------1-1-2-2---------------------1-1-2-2-4-4--|
A|------0-0-2-2-4-4-0-0-4-4---------------------0-0-2-2--------------|(x3)
E|--2-2-----------------------------0-0-2-2-4-4----------------------|

G|-------------------------------------------------------------------|
D|----------------6-7-7-7-7-7-7-7-9-6-----------6-7------------------|
A|--9-9-9-9-9-9-9---------------------7-7-7-7-7-----9----------------|
E|----------------------------------------------------7-7-7-7-7-7-7--|

G|-------------------------------------------------------------------|
D|------4-4-2-2-4-4-----7-7-6-6-7-7-----2-2-1-1-2-2-----1---1---1-2--|
A|--------------------------------------------------2-2---2---2------|(x2)
E|--2-2-------------5-5-------------0-0------------------------------|

G|--------------------------------------|
D|--------------------------1-1-2-2-----|
A|------0-0-2-2-4-4-0-0-4-4-------------|
E|--2-2-----------------------------0~--|


************************************

| \  Slide down
| /  Slide up
| ~  Vibrato

************************************

            
            
Suggest correction
Creating personal tab
Creating personal tab
You can edit any tab online and save it as your Personal.

You can edit, replace or remove any tab part or add personal notes – all changes will be seen only by you.

Personal tabs can be accessed anytime from any device, even offline.
Learn more »
Give kudos to tab author, rate the tab!
1 2 3 4 5
comments
print report bad tab
guest
You may want to rate the tab now too:
select rating
Wanna post a correction for this tab? Suggest correction