Oops, an error
Loading. Please wait.

North To Nothing tab

1 view 1 this week
no commentswrite comment
1 2 3 4 5
3 more votes to show rating
add to favorites
×
Save as Personal and add changes to this tab that will be seen only by you. Learn more ›
×
You can save this tab as Personal to edit and correct it or add notes. All changes will be seen only by you. Learn more »
launch autoscroll
font size
0
reset
how to read this tab
guitar tuner
edit
Autoscroll
slow
fast
+/-
esc
set tempo
stop
Artist: The Wrens 
Song: North to Nothing 

[Intro]
(Guitar 1) (strumming pattern not shown)
e|--7---2---0---7---2---|
B|--9---4---2---9---4---|
G|--9---4---2---9---4---|
D|--9---4---2---9---4---|
A|--7---2---0---7---2---|
E|----------------------|

(Guitar 2) (strumming pattern not shown)
e|--7--|
B|--9--|
G|--9--|
D|--9--|
A|--7--|
E|-----|

[Instrumental]
(Guitar 1)
e|-------------------------------------------------------------------|
B|----------------------------------------------------7---7---7---7--|
G|--9---9---9---9---9---9---9---9---9---9---9---9---8---8---8---8----|
D|----7---7---7---7---7---7---7---7---6---6---6---6------------------|
A|-------------------------------------------------------------------|
E|-------------------------------------------------------------------|

e|-----------------------------------------------------------------------|
B|-----------------------------------------------------------------------|
G|--8----8----8----8----6---6---6---6---9---9---9---9---9---9---9-8-6-8--|
D|----11---11---11---11---9---9---9---9---7---7---7---7---9---9----------|
A|-----------------------------------------------------------------------|
E|-----------------------------------------------------------------------|

(Guitar 2)
e|-------------------------------------------------------------------|
B|-------------------------------------------------------------------|
G|--9---9---9---9---9---9---9---9---9---9---9---9---8---8---8---8----|
D|----7---7---7---7---7---7---7---7---6---6---6---6---7---7---7---7--|
A|-------------------------------------------------------------------|(x2)
E|-------------------------------------------------------------------|

[Verse 1]
(Guitar 1)
e|-------------------------------------------------------------------|
B|-------------------------------------------------------------------|
G|--9-9-----9-9-----9-9-----9-9-----4-4-----4-4-----4-4-----3-3------|
D|--9-9-----9-9-----9-9-----9-9-----4-4-----4-4-----4-4-----3-3------|
A|--7-7-----7-7-----7-7-----7-7-----2-2-----2-2-----2-2-----1-1------|
E|-------------------------------------------------------------------|

e|-------------------------------------------------------------------|
B|-------------------------------------------------------------------|
G|--2-2-----2-2-----2-2-----2-2-----9-9-----9-9-----4-4-4-4-4--------|
D|--2-2-----2-2-----2-2-----2-2-----9-9-----9-9-----4-4-4-4-4--------|
A|--0-0-----0-0-----0-0-----0-0-----7-7-----7-7-----2-2-2-2-2--------|
E|-------------------------------------------------------------------|

e|--------------------------------------------------------------------|
B|--------------------------------------------------------------------|
G|--------------------------------------------------------------------|
D|--6-6-6-6-6-6-6-6-6-6-6-6-6-6-6-6-\1-1-1-1-1-1-1-1-1-1-1-1-0-0-0-0--|
A|--7-7-7-7-7-7-7-7-7-7-7-7-7-7-7-7-\2-2-2-2-2-2-2-2-2-2-2-2-1-1-1-1--|
E|--------------------------------------------------------------------|

e|---------------------------------------------------------------------|
B|---------------------------------------------------------------------|
G|---------------------------------------------------------------------|
D|--2-2-2-2-2-2-2-2-2-2-2-2-2-2-2-2-/6-6-6-6-6-6-6-\1-1-1-1-1-1-1-1----|
A|--0-0-0-0-0-0-0-0-0-0-0-0-0-0-0-0-/7-7-7-7-7-7-7-\2-2-2-2-2-2-2-2----|
E|---------------------------------------------------------------------|

e|----9--9--9----14-14-14---9--9--9----14-14-14---5-5-5---5-5-5-5-5-5-5-5-5-5-5--|
B|----12-12-12---17-17-17---12-12-12---17-17-17---9-9-9---9-9-9-9-9-9-9-8-8-8-8--|
G|-------------------------------------------------------------------------------|
D|-------------------------------------------------------------------------------|
A|-------------------------------------------------------------------------------|
E|-------------------------------------------------------------------------------|

e|----4-4-4---9--9--9----4-4-4---9--9--9----5-5-5---5-5-5---5---5---5---0--|
B|----7-7-7---12-12-12---7-7-7---12-12-12---9-9-9---9-9-9-9---9---9---9----|
G|-------------------------------------------------------------------------|
D|-------------------------------------------------------------------------|
A|-------------------------------------------------------------------------|
E|-------------------------------------------------------------------------|

(Guitar 2)
e|-------------------------------------------------------------------|
B|-------------------------------------------------------------------|
G|------9-9-----9-9-----9-9-----9-9-----9-9-----9-9-----9-9-----9-9--|
D|------9-9-----9-9-----9-9-----9-9-----9-9-----9-9-----9-9-----9-9--|
A|------7-7-----7-7-----7-7-----7-7-----7-7-----7-7-----7-7-----7-7--|
E|-------------------------------------------------------------------|

e|-------------------------------------------------------------------|
B|-------------------------------------------------------------------|
G|------9-9-----9-9-----9-9-----9-9-----9-9-----9-9-9-9-9-9-9--------|
D|------9-9-----9-9-----9-9-----9-9-----9-9-----9-9-9-9-9-9-9--------|
A|------7-7-----7-7-----7-7-----7-7-----7-7-----7-7-7-7-7-7-7--------|
E|-------------------------------------------------------------------|

e|--0-0-0-0-0-0-0-0-0-0-0-0-0-0-0-0-0-0-0-0-0-0-0-0-0-0-0-0-0-0-0-0--|
B|--5-5-5-7-7-5-5-7-7-5-5-7-7-5-5-0-4-4-4-5-5-4-4-5-5-4-4-5-5-4-2-4--|
G|-------------------------------------------------------------------|
D|-------------------------------------------------------------------|
A|-------------------------------------------------------------------|
E|-------------------------------------------------------------------|

e|--0-0-0-0-0-0-0-0-0-0-0-0-0-------0-0-0-0-0-0-0-0-0-0-0-0-0-x-7--9---|
B|--5-5-5-0-0-5-5-0-0-5-5-0-0-0-0-0-0-0-0-2-0-0-0-2-0-2-0-2-0-x-11-12--|
G|----------------------------2-1-2------------------------------------|
D|---------------------------------------------------------------------|
A|---------------------------------------------------------------------|
E|---------------------------------------------------------------------|

e|--x-x-14-14---9--9--9----14-14-14---9--9--9----10-10-10---14-14-14---9--9--9----8--8--8---|
B|--x-x-17-17---12-12-12---17-17-17---12-12-12---14-14-14---17-17-17---12-12-12---11-11-11--|
G|------------------------------------------------------------------------------------------|
D|------------------------------------------------------------------------------------------|
A|------------------------------------------------------------------------------------------|
E|------------------------------------------------------------------------------------------|

e|----7--7--7----5-5-5---7--7--7----4-4-4---5-5-5---5-5-5---4-4-4-4-4-4-0--|
B|----10-10-10---9-9-9---10-10-10---7-7-7---9-9-9---9-9-9---7-7-7-7-7-7----|
G|-------------------------------------------------------------------------|
D|-------------------------------------------------------------------------|
A|-------------------------------------------------------------------------|
E|-------------------------------------------------------------------------|

[Pre-chorus 1]
(Guitar 1) (strumming pattern not shown):
e|---4---3---3---2-----|
B|---5---4---5---4-----|
G|---6---5---5---4-----|
D|---6---5---5---4-----|
A|---4---3---3---2-----|
E|---------------------|

(Guitar 2)
e|--0-----0-0-----0-----0-0-0-----0-----0--0--------0-----0--0---------|
B|--7-----9-9-----7-----7-7-7-----8-----10-10-------7-----12-12--------|
G|---------------------------------------------------------------------|
D|---------------------------------------------------------------------|
A|---------------------------------------------------------------------|
E|---------------------------------------------------------------------|

[Chorus 1]
(Guitar 1)
e|-------------------------------------------------------------------|
B|----------------------------------------------------7---7---7---7--|
G|--9---9---9---9---9---9---9---9---9---9---9---9---8---8---8---8----|
D|----7---7---7---7---7---7---7---7---6---6---6---6------------------|
A|-------------------------------------------------------------------|
E|-------------------------------------------------------------------|

e|-----------------------------------------------------------------------|
B|-----------------------------------------------------------------------|
G|--8----8----8----8----6---6---6---6---9---9---9---9---9---9---9-8-6-8--|
D|----11---11---11---11---9---9---9---9---7---7---7---7---9---9----------|
A|-----------------------------------------------------------------------|
E|-----------------------------------------------------------------------|

(Guitar 2)
e|-------------------------------------------------------------------|
B|-------------------------------------------------------------------|
G|--9---9---9---9---9---9---9---9---9---9---9---9---8---8---8---8----|
D|----7---7---7---7---7---7---7---7---6---6---6---6---7---7---7---7--|
A|-------------------------------------------------------------------|(x2)
E|-------------------------------------------------------------------|

[Break]
(Guitars 1+2)
e|---------------------------------------------------|
B|---------------------------------------------------|
G|--3-3-3-3-3-3-3-3-3-3-3-3-3-3-3-3-4-4-4-4-4-4-4-4--|
D|--x-x-x-x-x-x-x-x-x-x-x-x-x-x-x-x-x-x-x-x-x-x-x-x--|
A|--1-1-1-1-1-1-1-1-1-1-1-1-1-1-1-1-2-2-2-2-2-2-2-2--|
E|---------------------------------------------------|

[Verse 2]
(Guitar 1)
e|-------------------------------------------------------------------|
B|-------------------------------------------------------------------|
G|--9-9-----9-9-----9-9-----9-9-----4-4-----4-4-----4-4-----3-3------|
D|--9-9-----9-9-----9-9-----9-9-----4-4-----4-4-----4-4-----3-3------|
A|--7-7-----7-7-----7-7-----7-7-----2-2-----2-2-----2-2-----1-1------|
E|-------------------------------------------------------------------|

e|-------------------------------------------------------------------|
B|-------------------------------------------------------------------|
G|--2-2-----2-2-----2-2-----2-2-----9-9-----9-9-----4-4-4-4-4--------|
D|--2-2-----2-2-----2-2-----2-2-----9-9-----9-9-----4-4-4-4-4--------|
A|--0-0-----0-0-----0-0-----0-0-----7-7-----7-7-----2-2-2-2-2--------|
E|-------------------------------------------------------------------|

e|--------------------------------------------------------------------|
B|--------------------------------------------------------------------|
G|--------------------------------------------------------------------|
D|--6-6-6-6-6-6-6-6-6-6-6-6-6-6-6-6-\1-1-1-1-1-1-1-1-1-1-1-1-0-0-0-0--|
A|--7-7-7-7-7-7-7-7-7-7-7-7-7-7-7-7-\2-2-2-2-2-2-2-2-2-2-2-2-1-1-1-1--|
E|--------------------------------------------------------------------|

e|---------------------------------------------------------------------|
B|---------------------------------------------------------------------|
G|---------------------------------------------------------------------|
D|--2-2-2-2-2-2-2-2-2-2-2-2-2-2-2-2-/6-6-6-6-6-6-6-\1-1-1-1-1-1-1-1----|
A|--0-0-0-0-0-0-0-0-0-0-0-0-0-0-0-0-/7-7-7-7-7-7-7-\2-2-2-2-2-2-2-2----|
E|---------------------------------------------------------------------|

e|----9--9--9----14-14-14---9--9--9----14-14-14---5-5-5---5-5-5---5-5-5---5-5-5--|
B|----12-12-12---17-17-17---12-12-12---17-17-17---9-9-9---9-9-9---9-9-9---8-8-8--|
G|-------------------------------------------------------------------------------|
D|-------------------------------------------------------------------------------|
A|-------------------------------------------------------------------------------|
E|-------------------------------------------------------------------------------|

e|----4-4-4---9--9--9----4-4-4---9--9--9----5-5-5---5-5-5---5---5---5---0--|
B|----7-7-7---12-12-12---7-7-7---12-12-12---9-9-9---9-9-9-9---9---9---9----|
G|-------------------------------------------------------------------------|
D|-------------------------------------------------------------------------|
A|-------------------------------------------------------------------------|
E|-------------------------------------------------------------------------|

(Guitar 2)
e|-------------------------------------------------------------------|
B|-------------------------------------------------------------------|
G|------9-9-----9-9-----9-9-----9-9-----9-9-----9-9-----9-9-----9-9--|
D|------9-9-----9-9-----9-9-----9-9-----9-9-----9-9-----9-9-----9-9--|
A|------7-7-----7-7-----7-7-----7-7-----7-7-----7-7-----7-7-----7-7--|
E|-------------------------------------------------------------------|

e|-------------------------------------------------------------------|
B|-------------------------------------------------------------------|
G|------9-9-----9-9-----9-9-----9-9-----9-9-----9-9-9-9-9-9-9--------|
D|------9-9-----9-9-----9-9-----9-9-----9-9-----9-9-9-9-9-9-9--------|
A|------7-7-----7-7-----7-7-----7-7-----7-7-----7-7-7-7-7-7-7--------|
E|-------------------------------------------------------------------|

e|--0-0-0-0-0-0-0-0-0-0-0-0-0-0-0-0-0-0-0-0-0-0-0-0-0-0-0-0-0-0-0-0--|
B|--5-5-5-7-7-5-5-7-7-5-5-7-7-5-5-0-4-4-4-5-5-4-4-5-5-4-4-5-5-4-2-4--|
G|-------------------------------------------------------------------|
D|-------------------------------------------------------------------|
A|-------------------------------------------------------------------|
E|-------------------------------------------------------------------|

e|--0-0-0-0-0-0-0-0-0-0-0-0-0-------0-0-0-0-0-0-0-0-0-0-0-0-0-x-7--9---|
B|--5-5-5-0-0-5-5-0-0-5-5-0-0-0-0-0-0-0-0-2-0-0-0-2-0-2-0-2-0-x-11-12--|
G|----------------------------2-1-2------------------------------------|
D|---------------------------------------------------------------------|
A|---------------------------------------------------------------------|
E|---------------------------------------------------------------------|

e|--14-14-14-14---9--9--9----14-14-14---9--9--9----10-10-10---14-14-14---9--9--9----8--8--8---|
B|--17-17-17-17---12-12-12---17-17-17---12-12-12---14-14-14---17-17-17---12-12-12---11-11-11--|
G|--------------------------------------------------------------------------------------------|
D|--------------------------------------------------------------------------------------------|
A|--------------------------------------------------------------------------------------------|
E|--------------------------------------------------------------------------------------------|

e|----7--7--7----5-5-5---7--7--7----4-4-4---5-5-5---5-5-5---4-4-4-4-4-4-0--|
B|----10-10-10---9-9-9---10-10-10---7-7-7---9-9-9---9-9-9---7-7-7-7-7-7----|
G|-------------------------------------------------------------------------|
D|-------------------------------------------------------------------------|
A|-------------------------------------------------------------------------|
E|-------------------------------------------------------------------------|

[Pre-chorus 2]
(Guitar 1) (strumming pattern not shown)
e|---4---3---3---2-----|
B|---5---4---5---4-----|
G|---6---5---5---4-----|
D|---6---5---5---4-----|
A|---4---3---3---2-----|
E|---------------------|

(Guitar 2)
e|--0-----0-----0---0-0-0-0-0-0-0-0-0-0-0-0--0--0--0--0--0-0-0--0--0--0--0--0---|
B|--7-----9-----9---7-7-7-7-7\5-5-5-8-8-8-10-10-10-10-10-7-7-7-/12-12-12-12-12--|
G|------------------------------------------------------------------------------|
D|------------------------------------------------------------------------------|
A|------------------------------------------------------------------------------|
E|------------------------------------------------------------------------------|

[Chorus 2]
(Guitar 1)
e|---------------------------------------------------------------------------|
B|---------------------------------------------------------------------------|
G|--8----8----8----8----6---6---6---6---11---11---11---11---9---9---9-8-6-8--|
D|----11---11---11---11---9---9---9---9----9----9----9----9---9---9----------|
A|---------------------------------------------------------------------------|(x4)
E|---------------------------------------------------------------------------|

(Guitar 2)
e|-------------------------------------------------------------------|
B|-------------------------------------------------------------------|
G|--9---9---9---9---9---9---9---9---9---9---9---9---8---8---8---8----|
D|----7---7---7---7---7---7---7---7---6---6---6---6---7---7---7---7--|
A|-------------------------------------------------------------------|(x4)
E|-------------------------------------------------------------------|

[Pre-chorus 3]
(Guitars 1+2) (strumming patterns not shown)
e|-----------------------|
B|-----------------------|
G|--6---7---4---7---2----|
D|--6---7---4---7---2----|
A|--4---5---2---5---0----|
E|-----------------------|

[Bridge]
(Guitar 1)
e|-----------------------------------------------------------------------|
B|-----------------------------------------------------------------------|
G|--9-9-9-9-11-11-11-11-12-12-12-12-14-14-14-14-16-16-16-16-17-17-19-19--|
D|--x-x-x-x-x--x--x--x--x--x--x--x--x--x--x--x--x--x--x--x--x--x--x--x---|
A|--7-7-7-7-9--9--9--9--10-10-10-10-12-12-12-12-14-14-14-14-15-15-17-17--|
E|-----------------------------------------------------------------------|
 |
e|----------------------------------------------------------------------------|
B|----------------------------------------------------------------------------|
G|--17-17-19-19-20-20-\17-17-16-16-16-16-17-17-19-19-17-17-16-16-14-14-12-12--|
D|--x--x--x--x--x--x---x--x--x--x--x--x--x--x--x--x--x--x--x--x--x--x--x--x---|
A|--15-15-17-17-18-18-\15-15-14-14-14-14-15-15-17-17-15-15-14-14-12-12-10-10--|
E|----------------------------------------------------------------------------|
 |
e|------------------------------------------------------------|
B|------------------------------------------------------------|
G|--10-10-10-10-/14-14-16-16-17b-17b-17b-17b-17b-17b-17b-17b--|
D|--x--x--x--x---x--x--x--x--x---x---x---x---x---x---x---x----|
A|--8--8--8--8--/12-12-14-14-15b-15b-15b-15b-15b-15b-15b-15b--|
E|------------------------------------------------------------|

^play this octave part twice^

e|--0~----------------|
B|--0~----------------|
G|--1~----------------|
D|--2~----------------|
A|--2~----------------|(x4)
E|--0~----------------|

e|-----------------------------------|
B|-----------------------------------|
G|--6-6-6-6-6-6-6-6-4-4-4-4-4-4-4-4--|
D|--x-x-x-x-x-x-x-x-x-x-x-x-x-x-x-x--|
A|--4-4-4-4-4-4-4-4-2-2-2-2-2-2-2-2--|
E|-----------------------------------|

(Guitar 2)
e|-------------------------------------------------------------------|
B|-------------------------------------------------------------------|
G|--9-9-9-9-7-7-7-7-5-5-5-5-4-4-4-4-2-2-2-2-2-2-2-2-2-2-2-2----------|
D|--9-9-9-9-7-7-7-7-5-5-5-5-4-4-4-4-2-2-2-2-2-2-2-2-2-2-2-2-6-6-6-6--|
A|--7-7-7-7-5-5-5-5-3-3-3-3-2-2-2-2-0-0-0-0-0-0-0-0-0-0-0-0-6-6-6-6--|
E|----------------------------------------------------------4-4-4-4--|
 |                                                                   |(x2)
e|-------------------------------------------------------------------|
B|-------------------------------------------------------------------|                                                            
G|--------------------------------------------------5-5-5-5-8-8-8-8--|
D|--5-5-5-5-3-3-3-3-2-2-2-2-2-2-2-2-3-3-3-3-3-3-3-3-5-5-5-5-8-8-8-8--|
A|--5-5-5-5-3-3-3-3-2-2-2-2-2-2-2-2-3-3-3-3-3-3-3-3-3-3-3-3-6-6-6-6--|
E|--3-3-3-3-1-1-1-1-0-0-0-0-0-0-0-0-1-1-1-1-1-1-1-1------------------|

e|--------------------------------------------------------------------|
B|--------------------------------------------------------------------|
G|--9-9-9-9-9-9-9-9-9-9-9-9-9-9-9-9\----------------------------------|
D|--9-9-9-9-9-9-9-9-9-9-9-9-9-9-9-9\-2---------------2----------------|
A|--7-7-7-7-7-7-7-7-7-7-7-7-7-7-7-7\-2---------------2----------------|
E|-----------------------------------0---4-0-3-5-6-7-0---4-0-3-5-6-7--|

e|-----------------------------------|
B|-----------------------------------|
G|--6-6-6-6-6-6-6-6-8-8-8-8-8-8-8-8--|
D|--x-x-x-x-x-x-x-x-x-x-x-x-x-x-x-x--|
A|--4-4-4-4-4-4-4-4-6-6-6-6-6-6-6-6--|
E|-----------------------------------|

[Chorus 3]
(Guitar 1)
e|-------------------------------------------------------------------|
B|-------------------------------------------------------------------|
G|--9---9---9---9---9---9---9---9---9---9---9---9---8---8---8---8----|
D|----7---7---7---7---7---7---7---7---6---6---6---6---7---7---7---7--|
A|-------------------------------------------------------------------|
E|-------------------------------------------------------------------|

e|-------------------------------------------------------------------|
B|-------------------------------------------------------------------|
G|--9---9---9---9---9---9---9---9---9---9---9---9---8---8---9-8-9-8--|
D|----7---7---7---7---7---7---7---7---6---6---6---6---7---7----------|
A|-------------------------------------------------------------------|
E|-------------------------------------------------------------------|

e|---------------------------------------------------------------------------|
B|---------------------------------------------------------------------------|
G|--8----8----8----8----6---6---6---6---11---11---11---11---9---9---9-8-6-8--|
D|----11---11---11---11---9---9---9---9----9----9----9----9---9---9----------|
A|---------------------------------------------------------------------------|(x6)
E|---------------------------------------------------------------------------|

(Guitar 2)
e|-------------------------------------------------------------------|
B|-------------------------------------------------------------------|
G|--9---9---9---9---9---9---9---9---9---9---9---9---8---8---8---8----|
D|----7---7---7---7---7---7---7---7---6---6---6---6---7---7---7---7--|
A|-------------------------------------------------------------------|(x8)
E|-------------------------------------------------------------------|


************************************

| \  Slide down
| /  Slide up
| x  Dead note
| b  Bend
| ~  Vibrato

************************************

            
            
Suggest correction
Creating personal tab
Creating personal tab
You can edit any tab online and save it as your Personal.

You can edit, replace or remove any tab part or add personal notes – all changes will be seen only by you.

Personal tabs can be accessed anytime from any device, even offline.
Learn more »
Give kudos to tab author, rate the tab!
1 2 3 4 5
comments
print report bad tab
guest
You may want to rate the tab now too:
select rating
Wanna post a correction for this tab? Suggest correction