Oops, an error
Loading. Please wait.

Safe And Comfortable tab

19 views 1 this week
no commentswrite comment
1 2 3 4 5
2 more votes to show rating
add to favorites
×
Save as Personal and add changes to this tab that will be seen only by you. Learn more ›
×
You can save this tab as Personal to edit and correct it or add notes. All changes will be seen only by you. Learn more »
launch autoscroll
font size
0
reset
how to read this tab
guitar tuner
edit
Autoscroll
slow
fast
+/-
esc
set tempo
stop
The Wrens - Safe and Comfortable - guitar tab

[Intro]

Guitar 1:

e|-----------------------------------|
B|-----------------------------------|
G|------1-------1-------1-------1----|
D|----2---2---2---2---2---2---2---2--|
A|--4-------3-------2-------3--------|x2 
E|-----------------------------------|

[Instrumental 1]

Guitar 1:

e|-----------------------------------|
B|-----------------------------------|
G|------1-------1-------1-------1----|
D|----2---2---2---2---2---2---2---2--|
A|--4-------3-------2-------3--------|x2 
E|-----------------------------------|

Guitar 2 (volume swell):

e|--------------------------------------------------------------------|
B|--------------------------------------------------------------------|
G|--------------------------------------------------------------------|
D|--6---6---6---6---6---6---9---5---6---6---6---6---6---6---9---6-----|
A|--x---x---x---x---x---x---x---x---x---x---x---x---x---x---x---x-----|
E|--4---4---4---4---4---4---7---3---4---4---4---4---4---4---7---4-----|

Guitar 3 (volume swell):

e|------------------------------------|
B|------------------------------------|
G|--9---9---9---9---9---9---8---8-----|
D|--x---x---x---x---x---x---x---x-----|
A|--7---7---7---7---7---7---6---6-----|x2
E|------------------------------------|

Guitar 4 (volume swell):

e|------------------------------------|
B|------------------------------------|
G|--6---6---5---5---4---4---5---5-----|
D|--x---x---x---x---x---x---x---x-----|
A|--4---4---3---3---2---2---3---3-----|x2
E|------------------------------------|

Guitar 5 (volume):

e|-------|---------------|
B|-------|---------------|
G|-------|---------------|
D|--10~--|--9---7---6----|
A|--x----|--x---x---x----|
E|--8~~--|--7---5---4----|

[Verse 1]

Guitar 1 (volume swell):

e|--------------------------------------------------------------------|
B|--------------------------------------------------------------------|
G|--------------------------------------------------------------------|
D|--6---6---6---6---6---6---7---7---6---6---6---6---6---6---9---5-----|
A|--x---x---x---x---x---x---x---x---x---x---x---x---x---x---x---x-----|
E|--4---4---4---4---4---4---5---5---4---4---4---4---4---4---7---3-----|

e|--------------------------------------------------------------------|
B|--------------------------------------------------------------------|
G|--------------------------------------------------------------------|
D|--6---6---6---6---6---6---9---5---6---6---6---6---6---6---7---6-----|
A|--x---x---x---x---x---x---x---x---x---x---x---x---x---x---x---x-----|
E|--4---4---4---4---4---4---7---3---4---4---4---4---4---4---5---4-----|

Guitar 2 (volume swell):

e|--------------------------------------------------------------------|
B|--------------------------------------------------------------------|
G|--9---9---9---9---4---4---5---8---9---9---9---9---4---4---5---8-----|
D|--x---x---x---x---x---x---x---x---x---x---x---x---x---x---x---x-----|
A|--7---7---7---7---2---2---3---6---7---7---7---7---2---2---3---6-----|
E|--------------------------------------------------------------------|

e|--------------------------------------------------------------------|
B|--------------------------------------------------------------------|
G|--9---9---9---9---4---4---5---8---8---8---9---9---9---9---8---8-----|
D|--x---x---x---x---x---x---x---x---x---x---x---x---x---x---x---x-----|
A|--7---7---7---7---2---2---3---6---6---6---7---7---7---7---6---6-----|
E|--------------------------------------------------------------------|

Guitar 3 (volume swell):

e|------------------------------------|
B|------------------------------------|
G|--6---6---5---5---4---4---5---5-----|
D|--x---x---x---x---x---x---x---x-----|
A|--4---4---3---3---2---2---3---3-----|x4
E|------------------------------------|

Guitar 5 (volume):

e|------|--------------------|---------|
B|------|--4~----5~----------|---------|
G|------|----------------5~--|--4------|
D|--4~--|--------------------|-----5~--|
A|--x---|--------------------|---------|
E|--2~--|--------------------|---------|

[Chorus 1]

Guitar 1:

e|--0~---------------2~---------------4~--------------------------------|
B|--0~---------------4~---------------5~--------------------------------|
G|--1~---------------4~---------------6~---------------4-6/8\6-4-6-4-6--|
D|--2~---------------4~---------------6~--------------------------------|
A|--2~---------------2~---------------4~--------------------------------|
E|--0~------------------------------------------------------------------|

e|--0~---------------2~---------------4~--------------------------------|
B|--0~---------------4~---------------5~-----------------2---2---2---2--|
G|--1~---------------4~---------------6~---------------5---5---5---5----|
D|--2~---------------4~---------------6~--------------------------------|
A|--2~---------------2~---------------4~--------------------------------|
E|--0~------------------------------------------------------------------|

Guitar 2:


e|------------------------------------------------------------0---0---0----|
B|----------------------------------------------------------4---4---4------|
G|-------------------4---/16---14---12---11\\\\\\\9~~~~~-------------------|
D|--2~---------------x---/x----x----x----x--------x------------------------|
A|--2~---------------2---/14---12---10---9\\\\\\\\7~~~~~-------------------|x2
E|--0~---------------------------------------------------------------------|

[Instrumental 2]

Guitar 1:

e|-----------------------------------|
B|-----------------------------------|
G|------1-------1-------1------------|
D|----2---2---2---2---2---2---2-2----|
A|--4-------3-------2-------3-----3--|x2 
E|-----------------------------------|

Guitar 2:

e|---------------------------------xx-0~~~~~~~~-------------------------|
B|--4~~~~~~~~----------------------xx-4~~~~~~~~-------------------------|
G|----------------------------------------------------------------------|
D|----------------------------------------------------------------------|
A|----------------------------------------------------------------------|
E|----------------------------------------------------------------------|

[Verse 2]

Guitar  1:

e|------|------|-----------|-----------|-----------|
B|------|------|-----------|-----------|-----------|
G|--1~--|--1^--|-----------|------1~---|-----------|
D|--2~--|--2^--|--2--------|--2--------|--2--------|
A|--4~--|--4^--|----4-4~---|----4------|----4-4~---|
E|------|------|-----------|-----------|-----------|

Guitar 2 (volume swell):

e|-------|------------------|---------------|
B|-------|------------------|---------------|
G|-------|------------------|---------------|
D|--10~--|--9---7---6---4~--|----13-13\11~--|
A|--x----|--x---x---x---x---|----x--x--x----|
E|--8~~--|--7---5---4---2~--|----11-11\9~---|

[Chorus 2]

Guitar 1:

e|--0~---------------2~---------------4~-------------2~-----------------|
B|--0~---------------4~---------------5~-------------4~-----------------|
G|--1~---------------4~---------------6~-------------4~-----------------|
D|--2~---------------4~---------------6~-------------4~-----------------|
A|--2~---------------2~---------------4~-------------2~-----------------|
E|--0~------------------------------------------------------------------|

e|--0~---------------2~---------------4~--------------4~----------------|
B|--0~---------------4~---------------5~--------------4~----------------|
G|--1~---------------4~---------------6~--------------5~----------------|
D|--2~---------------4~---------------6~--------------6~----------------|
A|--2~---------------2~---------------4~--------------6~----------------|
E|--0~------------------------------------------------4~----------------|

e|----------------------------------------------------------0-0-0-0-0-0-0--|
B|----------------------------------------------------------4-4-4-4-4-4-4--|
G|---------------4/6\4---/16---14---12---11\\\\\\\9~~~~~-------------------|
D|--2~-----------x-x-x---/x----x----x----x--------x------------------------|
A|--2~-----------2/4\2---/14---12---10---9\\\\\\\\7~~~~~-------------------|
E|--0~---------------------------------------------------------------------|

e|-----------+----------------------------------------------0-0-0-0-0-0-0--|
B|-----------+----------------------------------------------4-4-4-4-4-4-4--|
G|-----------+---4/6\4---/16---14---12---11\\\\\\\9~~~~~-------------------|
D|--2~-------+---x-x-x---/x----x----x----x--------x------------------------|
A|--2~-------+---2/4\2---/14---12---10---9\\\\\\\\7~~~~~-------------------|
E|--0~-------+-------------------------------------------------------------|

[Bridge]

Guitar 1:

e|----------------------------------2---2---2---2---2---2---2---2-----|
B|----------------------------------2---2---2---2---2---2---2---2-----|
G|----------------------------------3---3---3---3---3---3---3---3-----|
D|--4---4---4---4---4---4---4---4---4---4---4---4---4---4---4---4-----|
A|--4---4---4---4---4---4---4---4---4---4---4---4---4---4---4---4-----|
E|--2---2---2---2---2---2---2-0-2---2---2---2-0-2---2---2---2-0-2-----|

Guitar 2:

e|----2-2---2-2---2---2-2-2-2-2-/6--6--7--7--7----7--7--7--12-12---12-12-12---12-12--|
B|----5-5---5-5---5---5-5-5-5-5-/10-10-11-11-11---11-11-11-16-16---16-16-16---16-15--|
G|-----------------------------------------------------------------------------------|
D|-----------------------------------------------------------------------------------|
A|-----------------------------------------------------------------------------------|
E|-----------------------------------------------------------------------------------|

[Instrumental 3]

Guitar 1:

Guitar  1:

e|------|------|-----------|-----------|-----------|
B|------|------|-----------|-----------|-----------|
G|--1~--|--1^--|-----------|------1~---|-----------|
D|--2~--|--2^--|--2--------|--2--------|--2--------|
A|--4~--|--4^--|----4~-----|----4------|----4~-----|
E|------|------|-----------|-----------|-----------|

Guitar 2: 

e|--11~--|-----11-11--|
B|--14~--|-----14-14--|
G|-------|------------|
D|-------|------------|
A|-------|------------|
E|-------|------------|

Guitar 3 (volume swell):

e|--------------------------------------------------------------------|
B|--------------------------------------------------------------------|
G|--------------------------------------------------------------------|
D|--6---6---6---6---6---6---9---5---6---6---6---6---6---6---7---7-----|
A|--x---x---x---x---x---x---x---x---x---x---x---x---x---x---x---x-----|
E|--4---4---4---4---4---4---7---3---4---4---4---4---4---4---5---5-----|

Guitar 4 (volume swell):

e|------------------------------------|
B|------------------------------------|
G|--9---9---9---9---9---9---8---8-----|
D|--x---x---x---x---x---x---x---x-----|
A|--7---7---7---7---7---7---6---6-----|x2
E|------------------------------------|

Guitar 5 (volume swell):

e|------------------------------------|
B|------------------------------------|
G|--6---6---5---5---4---4---5---5-----|
D|--x---x---x---x---x---x---x---x-----|
A|--4---4---3---3---2---2---3---3-----|x2
E|------------------------------------|

[Verse 3]

Guitar  1:

e|------|------|------------------------------------|
B|------|------|------------------------------------|
G|------|------|------1~---------------1------------|
D|--2~--|------|--2----------------2----------------|
A|--4~--|--4~--|----4----------------4---4~---------|
E|------|------|------------------------------------|

e|-----------|
B|-----------|
G|------1----|
D|--2--------|
A|----4---4--|x4
E|-----------|

Guitar 2:

e|--10~--|
B|--14~--|
G|-------|
D|-------|
A|-------|
E|-------|

Guitar 3 (volume swell):

e|-----------------------------------|
B|-----------------------------------|
G|-----------------------------------|
D|--6---6---6---6---6---6---7---7----|
A|--x---x---x---x---x---x---x---x----|x2
E|--4---4---4---4---4---4---5---5----|

e|-----------------------------------|
B|-----------------------------------|
G|-----------------------------------|
D|--6---6---6---6---6---6---9---5----|
A|--x---x---x---x---x---x---x---x----|x2
E|--4---4---4---4---4---4---7---3----|

Guitar 4 (volume swell):

e|------------------------------------|
B|------------------------------------|
G|--9---9---9---9---9---9---8---8-----|
D|--x---x---x---x---x---x---x---x-----|
A|--7---7---7---7---7---7---6---6-----|x4
E|------------------------------------|

Guitar 5 (volume swell):

e|------------------------------------|
B|------------------------------------|
G|--6---6---5---5---4---4---5---5-----|
D|--x---x---x---x---x---x---x---x-----|
A|--4---4---3---3---2---2---3---3-----|x4
E|------------------------------------|

[Chorus 3]

Guitar 1:

e|--0~---------------2~---------------4~-------------2~-----------------|
B|--0~---------------4~---------------5~-------------4~-----------------|
G|--1~---------------4~---------------6~-------------4~-----------------|
D|--2~---------------4~---------------6~-------------4~-----------------|
A|--2~---------------2~---------------4~-------------2~-----------------|
E|--0~------------------------------------------------------------------|
 |                                                                      |x2
e|--0~---------------2~---------------4~--------------4~----------------|
B|--0~---------------4~---------------5~--------------4~----------------|
G|--1~---------------4~---------------6~--------------5~----------------|
D|--2~---------------4~---------------6~--------------6~----------------|
A|--2~---------------2~---------------4~--------------6~----------------|
E|--0~------------------------------------------------4~----------------|

e|--0~--|
B|--0~--|
G|--1~--|
D|--2~--|
A|--2~--|
E|--0~--|

Guitar 2:

e|----------------------------------------------------------0-0-0-0-0-0-0--|
B|----------------------------------------------------------4-4-4-4-4-4-4--|
G|---------------4/6\4---/16---14---12---11\\\\\\\9~~~~~-------------------|
D|--2~-----------x-x-x---/x----x----x----x--------x------------------------|
A|--2~-----------2/4\2---/14---12---10---9\\\\\\\\7~~~~~-------------------|x2
E|--0~---------------------------------------------------------------------|

e|-----------+----------------------------------------------0-0-0-0-0-0-0--|
B|-----------+----------------------------------------------4-4-4-4-4-4-4--|
G|-----------+---4/6\4---/16---14---12---11\\\\\\\9~~~~~-------------------|
D|--2~-------+---x-x-x---/x----x----x----x--------x------------------------|
A|--2~-------+---2/4\2---/14---12---10---9\\\\\\\\7~~~~~-------------------|
E|--0~-------+-------------------------------------------------------------|

e|-----------+--------------------------------------------12-12-12-12-12-12-12////--|
B|-----------+--------------------------------------------16-16-16-16-16-16-16////--|
G|-----------+---4/6\4---/16---14---12---11\\\\\\\9~~~~~----------------------------|
D|--2~-------+---x-x-x---/x----x----x----x--------x---------------------------------|
A|--2~-------+---2/4\2---/14---12---10---9\\\\\\\\7~~~~~----------------------------|
E|--0~-------+----------------------------------------------------------------------|

e|-----------+------------|
B|-----------+------------|
G|-----------+---4/6\4----|
D|--2~-------+---x-x-x----|
A|--2~-------+---2/4\2----|
E|--0~-------+------------|

==============================================
/ - slide up
\ = slide down
~ - sustain 
^ - rake chord up (lowest to highest strings)
x - mute note
+ - strum behind nut
==============================================

NOTE: if you don't have a volume pedal, just play the octaves with your thumb and swell them with your 
guitar's volume knob 


            
            
Suggest correction
Creating personal tab
Creating personal tab
You can edit any tab online and save it as your Personal.

You can edit, replace or remove any tab part or add personal notes – all changes will be seen only by you.

Personal tabs can be accessed anytime from any device, even offline.
Learn more »
Give kudos to tab author, rate the tab!
1 2 3 4 5
comments
print report bad tab
guest
You may want to rate the tab now too:
select rating
Wanna post a correction for this tab? Suggest correction