Oops, an error
Loading. Please wait.

Still Complaining tab

19 views 1 this week
no commentswrite comment
1 2 3 4 5
3 more votes to show rating
add to favorites
×
Save as Personal and add changes to this tab that will be seen only by you. Learn more ›
×
You can save this tab as Personal to edit and correct it or add notes. All changes will be seen only by you. Learn more »
launch autoscroll
font size
0
reset
how to read this tab
guitar tuner
edit
Autoscroll
slow
fast
+/-
esc
set tempo
stop
Still Complaining - guitar tab

[Verse 1]

Guitar 1:

e|-------------------|
B|-------------------|
G|-------------------|
D|------6---6--------|
A|----7---7---7~-----|(x2)
E|-------------------|  

e|-------------------------------------------------------------------|
B|-------------------------------------------------------------------|
G|-------------------------------------------------------------------|
D|------6---6-----------------------------------6~-------------------|
A|----7---7---7~------------------------------------7~---------------|
E|-------------------------------------------------------------------| 

Guitar 2:

e|-----------------------------------|
B|-----------------------------------|
G|-----------------------------------|
D|-----------------------------------|
A|------------7-9-7-9-7-------6-7-6--|
E|-----------------------------------|

e|---------------------------------------|
B|---------------------------------------|
G|---------------------------------------|
D|---------------------------------------|
A|--6-7-6-7-9-7-6---7-6-6-6---6-7-6-6-6--|
E|---------------------------------------|

e|-------------------------------------|
B|-------------------------------------|
G|-------------------------------------|
D|-------------------------------------|
A|--7-9-7-6-6-6-9-7-6---7-7-7-6-6-6-6--|
E|-------------------------------------|

[Pre-chorus 1]

Guitar 1: 

e|--15---15---15-15-12-15---12-15-12-15-12-15--|
B|--14---14---14-14-14-14---14-14-14-14-14-14--|
G|--12---12---12-12-12-12---12-12-12-12-12-12--|
D|--14---14---14-14-14-14---14-14-14-14-14-14--|
A|--12---12---12-12-12-12---12-12-12-12-12-12--|
E|---------------------------------------------|

Guitar 2:

e|---------------------------------|
B|---------------------------------|
G|---------------------------------|
D|--7---7---7-7-7-7---7-7-7-7-7-7--|
A|--7---7---7-7-7-7---7-7-7-7-7-7--|
E|--5---5---5-5-0-5---0-5-0-5-0-5--|
                      ^ ^ ^ ^ ^ ^ 

^ - play guitar 3
 
Guitar 3:

e|---------------------------------------|
B|--------------------10-10-10-10-10-10--|
G|--------------------13-13-13-13-13-13--|
D|---------------------------------------|
A|---------------------------------------|
E|---------------------------------------|

[Verse 2]

Guitar 1:

e|-------------------------------------------------------------------|
B|--0-0-0-0-0-0-0-0-0-0-0-0-0-0-0-0-0-0-0-0-0-0-0-0-0-0-0-0-0-0-0-0--|
G|--1-1-1-1-4-0-0-0-4-4-4-4-2-2-4-0-1-1-1-1-4-0-0-0-4-4-4-4-2-2-2-2--|
D|-------------------------------------------------------------------|
A|-------------------------------------------------------------------|
E|-------------------------------------------------------------------|

e|------------------------------------|
B|------9---9---------------9b--------|
G|----9---9---9~------------9b--------|
D|------------------------------------|
A|------------------------------------|(x3)
E|------------------------------------|

e|-------------------------------------|
B|------9b-------9b-------9b-------9b--|
G|------9b-------9b-------9b-------9b--|
D|-------------------------------------|
A|-------------------------------------|
E|-------------------------------------|

Guitar 2:

e|-------------------------------------------------------------------------|
B|-------------------------------------------------------------------------|
G|-------------------------------------------------------------------------|
D|-------------------------------------------------------------------------|
A|--7-9-7-9-7-6---7-9-7-6-7-6-7-6-7---7-9-7-9-7-6-7---7-9-7-9-7-6-7-6-7-6--|
E|-------------------------------------------------------------------------|

[Pre-chorus 2]

Guitar 1: 

e|--15---15---15-15-12-15---12-15---15-15-12-15---12-15---15-15-12-15---12-15-12-15-12-15--|
B|--14---14---14-14-14-14---14-14---14-14-14-14---14-14---14-14-14-14---14-14-14-14-14-14--|
G|--12---12---12-12-12-12---12-12---12-12-12-12---12-12---12-12-12-12---12-12-12-12-12-12--|
D|--14---14---14-14-14-14---14-14---14-14-14-14---14-14---14-14-14-14---14-14-14-14-14-14--|
A|--12---12---12-12-12-12---12-12---12-12-12-12---12-12---12-12-12-12---12-12-12-12-12-12--|
E|-----------------------------------------------------------------------------------------|

Guitar 2:

e|-----------------------------------------------------------------|
B|-----------------------------------------------------------------|
G|-----------------------------------------------------------------|
D|--7---7---7-7-7-7---7-7---7-7-7-7---7-7---7-7-7-7---7-7-7-7-7-7--|
A|--7---7---7-7-7-7---7-7---7-7-7-7---7-7---7-7-7-7---7-7-7-7-7-7--|
E|--5---5---5-5-0-5---0-5---5-5-0-5---0-5---5-5-0-5---0-5-0-5-0-5--|
                ^ ^         ^ ^ ^           ^ ^ ^     ^ ^   ^ ^ ^   

^ = play guitar 3

Guitar 3:

e|-------------------------------------------------------------------------------|
B|--------------10-10----------10-10-10-----------10-10-10-----10-10---10-10-10--|
G|--------------13-13----------13-13-13-----------13-13-13-----13-13---13-13-13--|
D|-------------------------------------------------------------------------------|
A|-------------------------------------------------------------------------------|
E|-------------------------------------------------------------------------------|

[Chorus 1]

Guitar 1: 

e|--0-0-0-0-0-0-0-0-2-2-2-2-2-2-2-2-0-0-0-0-2-2-2-2-0-0-0-0-0-0-0-0--|
B|--0-0-0-0-2-2-2-2-2-2-2-2-2-2-2-2-0-0-0-0-4-4-4-4-0-0-0-0-2-2-2-2--|
G|--1-1-1-1-2-2-2-2-3-3-3-3-3-3-3-3-1-1-1-1-4-4-4-4-1-1-1-1-2-2-2-2--|
D|--2-2-2-2-2-2-2-2-4-4-4-4-4-4-4-4-2-2-2-2-4-4-4-4-2-2-2-2-2-2-2-2--|
A|--2-2-2-2-0-0-0-0-4-4-4-4-4-4-4-4-2-2-2-2-2-2-2-2-2-2-2-2-0-0-0-0--|
E|--0-0-0-0---------2-2-2-2-2-2-2-2-0-0-0-0---------0-0-0-0----------|
                    * * * *

e|--4-4-4-4-2-2-2-2-4-4-4-4-4-4-4-4-5--|
B|--5-5-5-5-4-4-4-4-4-4-4-4-4-4-4-4-5--|
G|--6-6-6-6-4-4-4-4-5-5-5-5-5-5-5-5-6--|
D|--6-6-6-6-4-4-4-4-6-6-6-6-6-6-6-6-7--|
A|--4-4-4-4-2-2-2-2-6-6-6-6-6-6-6-6-7--|
E|------------------4-4-4-4-4-4-4-4-5--|

Guitar 2:

Enter when guitar 1 plays F# chord 

e|--------------------------------------------------------------------------------------------------------|
B|--/11b-11b-11b-11b-12-10-9-10-12-------------------14-12-14-12-10-12-9-9-9-9-9-9-9-9-9-9-9-9-9-9-9-9-7--|
G|--------------------------------------------------------------------------------------------------------|
D|--------------------------------------------------------------------------------------------------------|
A|--------------------------------------------------------------------------------------------------------|
E|--------------------------------------------------------------------------------------------------------|

[Bridge]

Guitar 1:

e|-------------------------------------------------------------------|
B|--5-5-5-5-7-7-7-7-9-9-9-9-9-9-9-9-5-5-5-5-5-5-5-5-4-4-4-4-4-4-4-4--|
G|--6-6-6-6-8-8-8-8-9-9-9-9-9-9-9-9-6-6-6-6-6-6-6-6-4-4-4-4-4-4-4-4--|
D|-------------------------------------------------------------------|
A|-------------------------------------------------------------------|
E|-------------------------------------------------------------------|

e|-----------------------------------------------------------------------------------|
B|--5-5-5-5-7-7-7-7-9-9-9-9-9-9-9-9-5-5-5-5-5-5-5-0-5-7-7-5-7-5-5-5-5-5-7-5-7-5-7----|
G|--6-6-6-6-8-8-8-8-9-9-9-9-9-9-9-9-6-6-6-6-6-6-6-5-5-5-5-5-5-5-5-5-5-5-5-5-5-5-5----|
D|-----------------------------------------------------------------------------------|
A|-----------------------------------------------------------------------------------|
E|-----------------------------------------------------------------------------------|

e|--14-----|
B|--17b19--| <- tremolo pick and bend and release 
G|---------|
D|---------|
A|---------|
E|---------|

Guitar 2:

e|-----------------------------------|
B|------4---4-4-4-4-----4-----0---4--|
G|----6---6-6-6-6-6---5---5-4---5----|
D|-----------------------------------|
A|-----------------------------------|
E|-----------------------------------|

e|----------------------------------------------------------------------------------------------------------|
B|---------------------------14-----------------------------------------------------------------------------|
G|--16p14v-11v-9v------/9-11-16b18-12-11------9h11-14\-9h11-14\-9h11-14\-9h11-14\-9h11-14/-16b-14-16b-14----|
D|----------------------------------------------------------------------------------------------------------|
A|----------------------------------------------------------------------------------------------------------|
E|----------------------------------------------------------------------------------------------------------|

silence until just before chorus, then:

e|---------------------------------------------------|
B|---------------------------------------------------|
G|---------------------------------------------------|
D|---------------------------------------------------|
A|--7-7-7-7-7-7-7-7-6-6-6-6-7-7-7-7------------------|
E|----------------------------------7-7-7-7-7-7-7-7--|

[Chorus 2]

Guitar 1: 

e|--0-0-0-0-0-0-0-0-2-2-2-2-2-2-2-2-0-0-0-0-2-2-2-2-0-0-0-0-0-0-0-0--|
B|--0-0-0-0-2-2-2-2-2-2-2-2-2-2-2-2-0-0-0-0-4-4-4-4-0-0-0-0-2-2-2-2--|
G|--1-1-1-1-2-2-2-2-3-3-3-3-3-3-3-3-1-1-1-1-4-4-4-4-1-1-1-1-2-2-2-2--|
D|--2-2-2-2-2-2-2-2-4-4-4-4-4-4-4-4-2-2-2-2-4-4-4-4-2-2-2-2-2-2-2-2--|
A|--2-2-2-2-0-0-0-0-4-4-4-4-4-4-4-4-2-2-2-2-2-2-2-2-2-2-2-2-0-0-0-0--|
E|--0-0-0-0---------2-2-2-2-2-2-2-2-0-0-0-0---------0-0-0-0----------|
                  
e|--4-4-4-4-2-2-2-2-4-4-4-4-4-4-4-4--|
B|--5-5-5-5-4-4-4-4-4-4-4-4-4-4-4-4--|
G|--6-6-6-6-4-4-4-4-5-5-5-5-5-5-5-5--|
D|--6-6-6-6-4-4-4-4-6-6-6-6-6-6-6-6--|
A|--4-4-4-4-2-2-2-2-6-6-6-6-6-6-6-6--|
E|------------------4-4-4-4-4-4-4-4--|

e|--0-0-0-0-0-0-0-0-2-2-2-2-2-2-2-2-0-0-0-0-2-2-2-2-0-0-0-0-0-0-0-0--|
B|--0-0-0-0-2-2-2-2-2-2-2-2-2-2-2-2-0-0-0-0-4-4-4-4-0-0-0-0-2-2-2-2--|
G|--1-1-1-1-2-2-2-2-3-3-3-3-3-3-3-3-1-1-1-1-4-4-4-4-1-1-1-1-2-2-2-2--|
D|--2-2-2-2-2-2-2-2-4-4-4-4-4-4-4-4-2-2-2-2-4-4-4-4-2-2-2-2-2-2-2-2--|
A|--2-2-2-2-0-0-0-0-4-4-4-4-4-4-4-4-2-2-2-2-2-2-2-2-2-2-2-2-0-0-0-0--|
E|--0-0-0-0---------2-2-2-2-2-2-2-2-0-0-0-0---------0-0-0-0----------|
                    * * * * 

e|--4-4-4-4-2-2-2-2-4-4-4-4-4-4-4-4--|
B|--5-5-5-5-4-4-4-4-4-4-4-4-4-4-4-4--|
G|--6-6-6-6-4-4-4-4-5-5-5-5-5-5-5-5--|
D|--6-6-6-6-4-4-4-4-6-6-6-6-6-6-6-6--|
A|--4-4-4-4-2-2-2-2-6-6-6-6-6-6-6-6--|
E|------------------4-4-4-4-4-4-4-4--|

Guitar 2:

Enter when guitar 1 plays F# chord 

e|------------------------------------------------------------------------------------------------------|
B|--/11b-11b-11b-11b-12-10-9-10-12-------------------------14-12-10-12-9-9-9-9-9-9-9-9-9-9-9-9-9-9-9-9--|
G|------------------------------------------------------------------------------------------------------|
D|------------------------------------------------------------------------------------------------------|
A|------------------------------------------------------------------------------------------------------|(x2)
E|------------------------------------------------------------------------------------------------------|

[Final chorus]

Guitar 1:

e|--0-0-0-0-0-0-0-0-2-2-2-2-2-2-2-2-0-0-0-0-2-2-2-2-0-0-0-0-0-0-0-0--|
B|--0-0-0-0-2-2-2-2-2-2-2-2-2-2-2-2-0-0-0-0-4-4-4-4-0-0-0-0-2-2-2-2--|
G|--1-1-1-1-2-2-2-2-3-3-3-3-3-3-3-3-1-1-1-1-4-4-4-4-1-1-1-1-2-2-2-2--|
D|--2-2-2-2-2-2-2-2-4-4-4-4-4-4-4-4-2-2-2-2-4-4-4-4-2-2-2-2-2-2-2-2--|
A|--2-2-2-2-0-0-0-0-4-4-4-4-4-4-4-4-2-2-2-2-2-2-2-2-2-2-2-2-0-0-0-0--|
E|--0-0-0-0---------2-2-2-2-2-2-2-2-0-0-0-0---------0-0-0-0----------|
                   
e|--4-4-4-4-2-2-2-2-4~--|
B|--5-5-5-5-4-4-4-4-4~--|
G|--6-6-6-6-4-4-4-4-5~--|
D|--6-6-6-6-4-4-4-4-6~--|
A|--4-4-4-4-2-2-2-2-6~--|
E|------------------4~--|

Guitar 2:

Enter when guitar 1 plays F# chord 

e|--------------------------------------------------------------------------------------|
B|--/11b-11b-11b-11b-12-10-9-10-12-------------------------14-12-10-12-9-9-9-9-7-7-7-7--|
G|--------------------------------------------------------------------------------------|
D|--------------------------------------------------------------------------------------|
A|--------------------------------------------------------------------------------------|
E|--------------------------------------------------------------------------------------|

***************
/ - slide up
\ - slide down 
v - vibrato 
x - mute note
* - palm mute 
b - bend 
r - release bend 
~ - sustain 
***************
Suggest correction
Creating personal tab
Creating personal tab
You can edit any tab online and save it as your Personal.

You can edit, replace or remove any tab part or add personal notes – all changes will be seen only by you.

Personal tabs can be accessed anytime from any device, even offline.
Learn more »
Give kudos to tab author, rate the tab!
1 2 3 4 5
comments
print report bad tab
guest
You may want to rate the tab now too:
select rating
Wanna post a correction for this tab? Suggest correction