Oops, an error
Loading. Please wait.

Evie bass

3,144 views 1 this week
no commentswrite comment
1 2 3 4 5
2 more votes to show rating
add to favorites
×
Save as Personal and add changes to this tab that will be seen only by you. Learn more ›
×
You can save this tab as Personal to edit and correct it or add notes. All changes will be seen only by you. Learn more »
launch autoscroll
font size
0
reset
guitar tuner
edit
Autoscroll
slow
fast
+/-
esc
set tempo
stop
Author
Difficulty
heres the tab its taken me ages to get it here so please rate and comment etc
enjoy


INTRO
G|------------------------|
D|------------------------|
A|------------------------|
E|--0-03H4--0-0-03H4-3H4--|

VERSE
G|---------------|
D|----------5----|
A|------5h7---7--|
E|--5h7----------|

PRE-CHORUS
G|------------------------|
D|------------------------|
A|---012~--0~--2~--55555--|
E|--3---------------------|

CHORUS
G|------------------------------|
D|-------------------5----------|
A|--5H7---5h7---5-5-5-7--75-----|
E|------0-----0--7-7-------753--|

OUTRO TO CHORUS
G|--------------|
D|--4~--4H5--2--|
A|--------------|
E|--------------|

BACK INTO INTRO
G|------------------------|
D|------------------------|
A|------------------------|
E|--0-03H4--0-0-03H4-3H4--|

VERSE
G|------------------------|
D|-------012---------5----|
A|---0123--------5h7---7--|
E|--3--------5h7----------|

PRE-CHORUS
G|------------------------|
D|------------------------|
A|---012~--0~--2~--55555--|
E|--3---------------------|

CHORUS
G|------------------------------|
D|-------------------5----------|
A|--5H7---5h7---5-5-5-7--75-----|
E|------0-----0--7-7-------753--|

OUTRO TO CHORUS
G|--------------|
D|--4~--4H5--2--|
A|--------------|
E|--------------|

TRANSITION
G|----------------|
D|----------------|
A|----------------|
E|--000000000000--|
    <<<<<<<<<<<<

THEN THERES NO BASS!!!!!!!

THEN FADE BACK IN PLAYING THIS
G|--------------------------------------------|
D|------------------------7575----------------|
A|--77777777777777--777777------7777777-------|
E|-------------------------------------5353---| X2

THEN PLAY THIS FOR A WHILE
G|--------------|
D|--------7575--|
A|--777777------|
E|--------------|

NEXT BIT
G|------------------|
D|------------------|
A|--7~--5~--4~--3~--|
E|------------------|

VERSE
G|------------------------|
D|-------012---------5----|
A|---0123--------5h7---7--|
E|--3--------5h7----------|

PRE-CHORUS
G|------------------------|
D|------------------------|
A|---012~--0~--2~--55555--|
E|--3---------------------|

CHORUS
G|------------------------------|
D|-------------------5----------|
A|--5H7---5h7---5-5-5-7--75-----|
E|------0-----0--7-7-------753--|

OUTRO TO CHORUS
G|--------------|
D|--4~--4H5--2--|
A|--------------|
E|--------------|

ENDING OF PART I
G|-------------------------------------------|
D|------------------------------10101010-----|
A|-----5~--4~--3~--7~--9~--10~---------------|
E|--0~-----------------------------------0~--|

PART II

THERE IS NO BASS IN PART II!!!!!!!!!!!!!!!!!!!!!!!!!!!


PART III
G|-----------------------------------------------|
D|-----------------------------------------------|
A|--4-446-667-779-99-11~--0H7H9/11--14-11-9-0H7--|
E|-----------------------------------------------| REPEAT

VERSE (p3)
G|---------------------------------|
D|-------------------------2-------|
A|--4~-4-----------44-2-4-4-4-2-4--|
E|-------5~-5-2~-2-----------------|

SECOND TIME THROUGH END ON THIS
G|-------------------|
D|-------------------|
A|--4-4-2-4-4-6-7-9--|
E|-------------------|

CHORUS (p3)
G|-------------------------|
D|-------------------------|
A|-------------------2222--|
E|--0000--5555--2222-------|

second time through play this
G|----------------------------------|
D|---------------------------2--2---|
A|-------------------4-44-2-4-44-4--|
E|--0000--5555--2222----------------|

VERSE (p3)
G|------------------------------------------------|
D|---------------------------------0h2h4p2p0------|
A|--4~-4-----------4-44-2-4-4-2222-----------4-2--|
E|-------5~-5-2~-2--------------------------------|

CHORUS (p3)
G|-------------------------|
D|-------------------------|
A|-------------------2222--|
E|--0000--5555--2222-------|

second time through play this
G|----------------------------------------------------------------|
D|----------------------------------------------------------------|
A|-------------------4-446-667-779-99-11~--0H7H9/11--14-11-9-0H7--|
E|--0000--5555--2222----------------------------------------------|
(repeat the intro part of this part^^^^^^^^^^)

i cant figure out the end of this
G|--------------------------------|
D|--222222---------222222---------|
A|--------------------------------|
E|---------0011222-------0011222--|

VERSE (p3)
G|---------------------------------|
D|-------------------------2-------|
A|--4~-42----------44-2-4-4-4-2-4--|
E|-------5~-542~-2-----------------|

CHORUS (p3)
G|-------------------------|
D|-------------------------|
A|-------------------2222--|
E|--0000--5555--2222-------| repeat alot

G|-----------------------------------------------|
D|-----------------------------------------------|
A|--4-446-667-779-99-11~--0H7H9/11--14-11-9-0H7--|
E|-----------------------------------------------| repeat until end

key
h=hammer on
p=pull off
<=gradually get louder
/\=slide up or down
~=let ring

and thats it 
thanx




            
            
Suggest correction
Creating personal tab
Creating personal tab
You can edit any tab online and save it as your Personal.

You can edit, replace or remove any tab part or add personal notes – all changes will be seen only by you.

Personal tabs can be accessed anytime from any device, even offline.
Learn more »
Give kudos to tab author, rate the tab!
1 2 3 4 5
comments
print report bad tab
guest
You may want to rate the tab now too:
select rating
Wanna post a correction for this tab? Suggest correction