Oops, an error
Loading. Please wait.

Evie Part 1 bass

version 1
version 1

Whole song

Interactive

2,298 views 1 this week
1 commentread comment
1 2 3 4 5
1 last vote to show rating
add to favorites
×
Save as Personal and add changes to this tab that will be seen only by you. Learn more ›
×
You can save this tab as Personal to edit and correct it or add notes. All changes will be seen only by you. Learn more »
launch autoscroll
font size
0
reset
guitar tuner
edit
Autoscroll
slow
fast
+/-
esc
set tempo
stop
Intro

G --------------------------------------------||
D --------------------------------------------||
A --------------------------------------------|| 
E --0-0-3h4---0-0-03h4-3h4--------------------||

VERSE
G --------------------------------------------|
D --------------5-----------------------------|
A ----------5-7---7-(7)-----------------------
E -0---0-5-7----------------------------------|  

BRIDGE

G ---------|---------|--------|----------|
D ---------|---------|--------|----------|
A ---------|---------|--------|----------|
E -777-777-|-555-555-|-777-777|-5-5-5-5--|

CHORUS

G ------------------------------------|-------|
D ----------------------5-------------|-------|
A -5-7----5-7---5--5--5--7-5----------|--5----|
E -----0------0--7--7--------7-5-3-0--|-----5-|

INTRO
VERSE
BRIDGE
CHORUS

SOLO

G ------------------------------------------|
D ------------------------------------------|
A 7-7-7-7-7-5-------------------------------|
E ------------7-5-3-5-3---------------------|

RIFF

G -------|-------|-------|--------|
D -------|-------|-------|--------|
A -7-----|-5-----|-------|-3------|
E -------|-------|-5-----|--------| 

VERSE
BRIDGE 
CHORUS
RIFF



AND IT GOES SOMETHING LIKE THAT....JUST LISTEN TO IT AND SUCH TO FIGURE OUT THE TIMING

Suggest correction
Creating personal tab
Creating personal tab
You can edit any tab online and save it as your Personal.

You can edit, replace or remove any tab part or add personal notes – all changes will be seen only by you.

Personal tabs can be accessed anytime from any device, even offline.
Learn more »
Give kudos to tab author, rate the tab!
1 2 3 4 5
comments
print report bad tab
1 comment total.
0 reply
tasmo 92 Apr 18, 2007 06:41 PM

reasonably correct. but you missed the end and other little bits + you missed all the cool fills (throughout the whole song)

guest
You may want to rate the tab now too:
select rating
Wanna post a correction for this tab? Suggest correction