Oops, an error
Loading. Please wait.

C-Side Tab

388 views 27 this week
no commentswrite comment
1 2 3 4 5
1 last vote to show rating
add to favorites
launch autoscroll
font size
0
reset
how to read this tab
guitar tuner
Autoscroll
slow
fast
+/-
esc
set tempo
stop
Help us to improve Ultimate-Guitar.com Take our survey!
×
Author
[Intro]

e|--------|
B|-2------|
G|-0------|
D|-0------| play until next part
A|-4------|
E|--------|

e|------------------------------------------------------|
B|------------------------------------------------------|
G|---3h4--------------3h4-------3h4--------------3h4----|
D|-------6-5------3-5-----5-5-------6-5------3-5-----5~-|
A|-----------6-5------------------------6-5-------------|
E|-3--------------------------3-------------------------|

e|--------|
B|-2------|
G|-0------|
D|-0------| play until next part
A|-4------|
E|--------|


[Verse 1]

e|-3-----------------0----------3------------------0-|
B|-3-----------------1----------3------------------1-|
G|-3----------0------0----------3-----------0------0-| 
D|-1------0h1---1-0--2----------1-------0h1---1-0--2-| 
A|-------------------3-----------------------------3-|
E|---------------------------------------------------|(x2)

e|-0-0-0-0-0-0-0-0-|
B|-1-1-1-1-1-1-1-1-|
G|-0-0-0-0-0-0-0-0-|
D|-2-2-2-2-2-2-2-2-|
A|-3-3-3-3-3-3-3-3-|
E|-----------------|


[Chorus]

e|------------------------------------------------------|
B|------------------------------------------------------|
G|------------------------------------------------------| 
D|----4h5-3----------------------4h5-3------------------|
A|----------6-5-3----5b7--5b7----------6-5-3----3b5-3b5-|
E|-3--------------------------3-------------------------|(x2)


[Post-Chorus]

e|-----------------------------------------------------|
B|-----------------------------------------------------|
G|---3h4--------------3h4-------3h4--------------3h4---|
D|-------6-5------3-5-----5-5-------6-5------3-5-------|
A|-----------6-5------------------------6-5------------|
E|-3--------------------------3------------------------|


[Verse 2]

e|-3-----------------0----------3------------------0-|
B|-3-----------------1----------3------------------1-|
G|-3----------0------0----------3-----------0------0-| 
D|-1------0h1---1-0--2----------1-------0h1---1-0--2-| 
A|-------------------3-----------------------------3-|
E|---------------------------------------------------|(x2)

e|-0-0-0-0-0-0-0-0-|
B|-1-1-1-1-1-1-1-1-|
G|-0-0-0-0-0-0-0-0-|
D|-2-2-2-2-2-2-2-2-|
A|-3-3-3-3-3-3-3-3-|
E|-----------------|


[Chorus]

e|------------------------------------------------------|
B|------------------------------------------------------|
G|------------------------------------------------------| 
D|----4h5-3----------------------4h5-3------------------|
A|----------6-5-3----5b7--5b7----------6-5-3----3b5-3b5-|
E|-3--------------------------3-------------------------|(x4)


[Bridge Bit]

e|------------------------------------------------|
B|------------------------------------------------|
G|-----0-------------0----------5b6---------------|
D|---5-------------5------7b8-5-------7-5---------|
A|-4-------------4------------------------4--\0---|
E|------------------------------------------------|

honestly cant make much of this next bit out

and finish on:

e|--------------------------------------|
B|--------------------------------------|
G|-----0-------------0----------5b6-----|
D|---5-------------5------7b8-5---------|
A|-4-------------4----------------------|
E|--------------------------------------|


************************************

| h  Hammer-on
| b  Bend
| \  Slide down
| ~  Vibrato

************************************
Suggest correction
Give kudos to tab author, rate the tab!
1 2 3 4 5
comments
print report bad tab
guest
You may want to rate the tab now too:
select rating
Wanna post a correction for this tab? Suggest correction