Oops, an error
Loading. Please wait.

Angels Bass

version 1
version 1

Whole song

Interactive

by The xx
8,296 views 24 this week
3 commentsread comments
1 2 3 4 5
x 12
add to favorites
launch autoscroll
font size
0
reset
guitar tuner
×
Best way to learn
"Angels"
Autoscroll
slow
fast
+/-
esc
set tempo
stop
Author
Difficulty
novice
Intro:
G|-16-16-/-14-14-/-7-7-\-14-14-\-16-16-/-14-14-/-7-7-\-14-14-\-16-16-/-14-14-|
D|---------------------------------------------------------------------------|
A|---------------------------------------------------------------------------|
E|---------------------------------------------------------------------------|


G|------------|
D|------------|  x4
A|---------12-|
E|-10-\-12----|


G|-16-16-/-14-14-/-7-7-\-14-14-\-16-|
D|----------------------------------|
A|----------------------------------|
E|----------------------------------|


G|-------------|-------------|
D|-------------|-------------|  x2
A|-12----------|----------12-|
E|----12-12-10-|-10-12-12----|


G|------------|
D|------------|  x4
A|---------12-|
E|-10-\-12----|


G|----------|----------|
D|----------|----------|
A|-12-------|-------12-|
E|----12-10-|-10-12----|


G|-7---7---7---7---14----14----14----14----16----16----16----16----14----14----14----14----|
D|---9---9---9---9----16----16----16----16----18----18----18----18----16----16----16----16-|
A|-----------------------------------------------------------------------------------------|
E|-----------------------------------------------------------------------------------------|


G|-------------|
D|-------------|  x4
A|----------12-|
E|-10-12-12----|

This is my first tab and I'm pretty sure it's correct. Let me know if there's any 
corrections to be done.
Suggest correction
comments
print report bad tab
3 comments total.
-1 reply
joshahbourne 10 Jun 03, 2013 10:45 AM

are you sure?

+1 reply
panda92 186 Jul 10, 2013 09:51 AM

I watched many videos of Ollie playing and I am 99% sure it is correct. I may need to write down the timing, but when I've played it, it sounds right too. Unless you can spot something specific that's wrong?

guest
You may want to rate the tab now too:
select rating
Wanna post a correction for this tab? Suggest correction