Oops, an error
Loading. Please wait.

Basic Space Bass Tab

version 1
version 1

Whole song

Interactive

5,985 views 6 this week
1 commentread comment
1 2 3 4 5
x 3
add to favorites
launch autoscroll
font size
0
reset
guitar tuner
Autoscroll
slow
fast
+/-
esc
set tempo
stop
Help us to improve Ultimate-Guitar.com Take our survey!
×
Tabbed by: jaronthebassist
                                      Basic Space                                         
                                                                                    The xx
Bass (starts at 1:07, chords are keyboard)

      E  Q     E  H            E  Q     E  H            E  Q     E  H         
G||--15-------15-----------|--15-------15-----------|--10-------10-----------|
D||--17-------17-----------|--17-------17-----------|--12-------12-----------|
A||------------------------|------------------------|------------------------|
E||------------------------|------------------------|------------------------|


   E  Q     E  H            E  Q     E  H            E  Q     E  H         
--10-------10-----------|--15-------15-----------|--15-------15-----------|
--12-------12-----------|--17-------17-----------|--17-------17-----------|
------------------------|------------------------|------------------------|
------------------------|------------------------|------------------------|


   E  Q     E  H             W                17x   E  Q     E  H         
--10-------10-----------||---------------------||--12-------12-----------|
--12-------12-----------||*-------------------*||--13-------13-----------|
------------------------||*-------------------*||------------------------|
------------------------||---------------------||------------------------|


   E  Q     E  H            E  Q     E  H            E  Q     E  H         
--12-------12-----------|--10-------10-----------|--10-------10-----------|
--13-------13-----------|--12-------12-----------|--12-------12-----------|
------------------------|------------------------|------------------------|
------------------------|------------------------|------------------------|


   E  Q     E  H            E  Q     E  H            E  Q     E  H         
--12-------12-----------|--12-------12-----------|--10-------10-----------|
--13-------13-----------|--13-------13-----------|--12-------12-----------|
------------------------|------------------------|------------------------|
------------------------|------------------------|------------------------|


   E  E  H.              Q.     E  H           Q.     Q.     Q        Q.     E  H         
--10------------------|---------------------|----------------------|---------------------|
--12------------------|---------------------|----------------------|---------------------|
----------------------|--6------6--L--------|--6------6------6S----|--5------5--L--------|
----------------------|---------------------|----------------------|---------------------|


  Q.     Q.     Q        Q.     E  H           Q.     Q.     Q        Q.     E  H         
----------------------|---------------------|----------------------|---------------------|
----------------------|---------------------|----------------------|---------------------|
--5------5------5S----|--6------6--L--------|--6------6------6S----|--5------5--L--------|
----------------------|---------------------|----------------------|---------------------|


  H.           Q        Q.     E  H           Q.     Q.     Q        Q.     E  H         
---------------------|---------------------|----------------------|---------------------|
---------------------|---------------------|----------------------|---------------------|
--5------------5S----|--6------6--L--------|--6------6------6S----|--5------5--L--------|
---------------------|---------------------|----------------------|---------------------|


  Q.     Q.      Q        Q.     E  H           Q.     Q.     Q      
-----------------------|---------------------|----------------------|
-----------------------|---------------------|----------------------|
--5------5S------3S----|--6------6--L--------|--6------6------6S----|
-----------------------|---------------------|----------------------|


  Q.     E  H           W                   Q.     Q.     Q       Q.     Q.     Q      
---------------------|-------------------|---------------------|----------------------|
---------------------|-------------------|---------------------|----------------------|
--5------5--L--------|-------------------|--6------6------6----|--6------6------6S----|
---------------------|-------------------|---------------------|----------------------|


  Q.     Q.     Q       Q    E  E  Q    Q        Q.     Q.     Q     
---------------------|------------------------|---------------------|
---------------------|------------------------|---------------------|
--5------5------5----|--5-------5-------5S----|--6------6------6----|
---------------------|------------------------|---------------------|


  Q.     Q.     Q        Q.     Q.     Q       W                   Q    E  Q.     Q     
----------------------|---------------------|-------------------|----------------------|
----------------------|---------------------|-------------------|----------------------|
--6------6------6S----|--5------5------5----|--5----------------|--6-------6-----------|
----------------------|---------------------|-------------------|----------------------|


  Q    E  E    Q     Q        Q    E  Q.     Q       E  E  E  E   E   E  E  E    
---------------------------|----------------------|-----5-----5---LS--7-----7---|
---------------------------|----------------------|-----------------------------|
--6-------6S--10----10S----|--5-------5-----------|--3-----3--LS--5------5--LS--|
---------------------------|----------------------|-----------------------------|


  Q    E  Q.     Q       Q    E  E    Q     Q        Q    E  Q.     Q     
----------------------|---------------------------|----------------------|
----------------------|---------------------------|----------------------|
--6-------6-----------|--6-------6S--10----10S----|--5-------5-----------|
----------------------|---------------------------|----------------------|


  W                     W                 4x   W                   W                 
-------------------||---------------------||--15----------------|--L----------------|
-------------------||*-------------------*||--17----------------|--L----------------|
--5----------------||*-------------------*||--------------------|-------------------|
-------------------||---------------------||--------------------|-------------------|


   W                   H.           Q       Q    E  Q.     Q     
--10----------------|--------------------|----------------------|
--12----------------|--------------------|----------------------|
--------------------|--3-----------------|--6-------6-----------|
--------------------|--------------------|----------------------|


  Q    E  E    Q     Q        Q    E  Q.     Q       E  E  E  E   E   E  E  E    
---------------------------|----------------------|-----5-----5---LS--7-----7---|
---------------------------|----------------------|-----------------------------|
--6-------6S--10----10S----|--5-------5-----------|--3-----3--LS--5------5--LS--|
---------------------------|----------------------|-----------------------------|


  Q    E  Q.     Q       Q    E  E    Q     Q        Q    E  Q.     Q     
----------------------|---------------------------|----------------------|
----------------------|---------------------------|----------------------|
--6-------6-----------|--6-------6S--10----10S----|--5-------5-----------|
----------------------|---------------------------|----------------------|


  H.           Q       Q    E  Q.     Q       Q    E  E    Q     Q      
--------------------|----------------------|---------------------------|
--------------------|----------------------|---------------------------|
--5-----------------|--6-------6-----------|--6-------6S--10----10S----|
--------------------|----------------------|---------------------------|


  Q    E  Q.     Q       Q.      Q.     Q        Q    E  Q.     Q     
----------------------|-----------------------|----------------------|
----------------------|-----------------------|----------------------|
--5-------5-----------|--5S------3------3S----|--6-------6-----------|
----------------------|-----------------------|----------------------|


  Q    E  E    Q     Q        Q    E  Q.     Q       H        Q    Q     
---------------------------|----------------------|---------------------|
---------------------------|----------------------|---------------------|
--6-------6S--10----10S----|--5-------5-----------|--5--------5----5----|
---------------------------|----------------------|---------------------|


    W                  
---------------------||
---------------------||
--5g6----------------||
---------------------||




Duration Legend
---------------
W - whole
H - half
Q - quarter
E - 8th
S - 16th
T - 32nd
X - 64th
. - note dotted
|-n-|  - n-tuplets


Tablature Legend
----------------
L - tied note
x - dead note
g - grace note
(n) - ghost note
> - accentuded note
NH - natural harmonic
AH - artificial harmonic
TH - tapped harmonic
SH - semi harmonic
PH - pitch harmonic
h - hammer on
p - pull off
b - bend
br - bendRelease
pb - preBend
pbr - preBendRelease
brb - bendReleaseBend
\n/ - tremolo bar dip
\n - tremolo bar dive
-/n - tremolo bar Release up
/n\ - tremolo bar inverted dip
/n - tremolo bar return
-\n - tremolo bar Release down
S - shift slide
s - legato slide
/ -  slide into from below or out of upwards
\ -  slide into from above or out of downwards
~ - vibrato
W - wide vibrato
tr - trill
TP - tremolo picking
T - tapping
S - slap
P - pop
< - fade in
^ - brush up
v - brush down
Suggest correction
Give kudos to tab author, rate the tab!
1 2 3 4 5
comments
print report bad tab
1 comment total.
0 reply
daniel.brauckma 10 Jul 29, 2015 06:43 PM

Clearly wrong. This Tab is just completely wrong
word word word more word word word
more word and words with words
ahh. why do you make me do this?! more words to confirm my word rating

guest
You may want to rate the tab now too:
select rating
Wanna post a correction for this tab? Suggest correction