Oops, an error
Loading. Please wait.

Basic Space Tab

version 2
version 2

Whole song

Interactive

43,397 views 51 this week
2 commentsread comments
1 2 3 4 5
x 5
add to favorites
launch autoscroll
font size
0
reset
how to read this tab
guitar tuner
Autoscroll
slow
fast
+/-
esc
set tempo
stop
Help us to improve Ultimate-Guitar.com Take our survey!
×
Difficulty
novice
The XX - Basic Space                     Tabbed by:ThatAwesomeGuy      
                                         E-mail:Punkov96@hotmail.co.uk 

No guitar verse 1

No guitar chorus

Verse 2
|----------------------------------------------------------------------|
|----------------------------------------------------------------------|
|-------15151515151515151515151515151514141414141414141414141414141414-|
|----------------------------------------------------------------------|X2
|----------------------------------------------------------------------|
|----------------------------------------------------------------------|

|-----------------------------------------------------------------------|
|-------------------------------15------15-----15-----------------------|
|-------1515151515151515---1515---1515—14141414141414141414141412121414-|
|-----------------------------------------------------------------------|   
|-----------------------------------------------------------------------|
|-----------------------------------------------------------------------|

|-----------------------------------------------------------------------|
|-------------------15-----15-----15------------------------------------|
|--1515151515151515---1515---1515---1414141414141414141414-12(let ring)-|
|-----------------------------------------------------------------------|
|-----------------------------------------------------------------------|
|-----------------------------------------------------------------------|

No guitar chorus

Bridge (Bass)

|--------------------------------5-----5-----7-----7------------------|
|---------------------------------------------------------------------|
|-6--6--6--6/10--10\5---5----3-----3-----5-----5----------------------|
|---------------------------------------------------------------------|

Verse 3

|---------------------------------------------------------------------|
|------------------------------15151515-------------------------------|
|------151515151515151515151515--------1414141414141414141412121414---|
|---------------------------------------------------------------------|
|---------------------------------------------------------------------|
|---------------------------------------------------------------------|


|---------------------------------------------------------------------|
|-----------------------1515151616161515------------------------------|
|-----1515151515151515------------------------141414141414141412------|
|---------------------------------------------------------------------|
|---------------------------------------------------------------------|
|---------------------------------------------------------------------|

Solo

|------------------------------|       
|------------15----------------|         
|--------12------14---12-------|    X2   
|------------------------------|       
|------------------------------|
|------------------------------|
                                             After 2nd Time 
|--------------------------------|       |-------------------|
|--------------------------------|       |-------------------|
|--12---12-H-14—12---10----------|   X2  |----10/12----------|
|--------------------------------|       |-------------------|
|--------------------------------|       |-------------------|
|--------------------------------|       |-------------------|

|------------------------------|
|------------15----------------|
|--------12------14---12-------|    X2
|------------------------------|
|------------------------------|
|------------------------------|

|---------------------|
|---------------------|
|--12---12-H-14-------|
|---------------------|
|---------------------|
|---------------------|

Ending

|----------------------------------------| 
|----------------------------------------| 
|------14------12------15 (let ring)-----| 
|----------------------------------------| 
|----------------------------------------| 
|----------------------------------------|
Suggest correction
comments
print report bad tab
2 comments total.
0 reply
ThatAwesomeGuy 10 Dec 10, 2009 11:36 AM

Forgot to log in when i tabbed it

on the 2nd line the notes on the B string should be moved into the gaps

+1 reply
amg93 57 Jul 06, 2010 06:16 AM

On the solo (see below), the first note, which is tabbed as the 12th fret, should be 15th.

|------------------------------|
|------------15----------------|
|--------12------14---12-------| X2
|------------------------------|
|------------------------------|
|------------------------------|

guest
You may want to rate the tab now too:
select rating
Wanna post a correction for this tab? Suggest correction