Oops, an error
Loading. Please wait.

Chained Bass Tab

version 2
version 2

Whole song

4,369 views 9 this week
3 commentsread comments
1 2 3 4 5
accurate
x 7
add to favorites
launch autoscroll
font size
0
reset
guitar tuner
Tab Pro tools
  • play this tab
  • loop segment
  • change instrument
  • show fretboard
  • metronome
Autoscroll
slow
fast
+/-
esc
set tempo
stop
Contributor
Difficulty
novice
My favorite song on the album. I was hoping there was a good tab up already for it, but 
that other one didn't sound right so I'll take a stab at it.

First part goes something like this:

G|-----------------------------------------------------------------|
D|-----------------------------------------------------------------|
A|-5-5-5-5-5-5-5-5-3-3-3-3-3-3-3-3-0-0-0-0-0-0-0-0-0-0-0-0-0-0-0-0-|
E|-----------------------------------------------------------------|

G|-----------------------------------------------------------------|
D|-----------------------------------------------------------------|
A|-----------------------------------------------------------------|
E|-3-3-3-3-3-3-3-3-3-3-3-3-3-3-3-3-0-0-0-0-0-0-0-0-0-0-0-0-0-0-0-0-|

(personally I like playing the fifth fret on the E instead of an open A, I think it 
sounds better, but whatever you want)

And then there is a variation:

G|-----------------------------------------------------------------|
D|-----------------------------------------------------------------|
A|-5-5-5-5-5-5-5-5-5-5-5-5-5-5-5-5-0-0-0-0-0-0-0-0-0-0-0-0-0-0-0-0-|
E|-----------------------------------------------------------------|

G|-----------------------------------------------------------------|
D|---------------------------------5-5-5-5-5-5-5-5-5-5-5-5-5-5-5-5-|
A|-----------------------------------------------------------------|
E|-3-3-3-3-3-3-3-3-3-3-3-3-3-3-3-3---------------------------------|

These are the two main parts. Listen to the song to hear when to play the right part. 
Hope this helps. If not, hopefully it's in the right direction where someone else can put 
up a better tab.. SLAP DA BASS MON.. sorry.

p.s. this is my first tab, please be gentle..
comments
print report bad tab
3 comments total.
0 reply
rawr13 wrote on February 1 2013, 10:03 am

Sounds about right. Maybe a few notes wrong, but it sounds alright.

0 reply
jakeman90210 wrote on August 19 2014, 03:37 pm, edited at 03:40 pm

First off, its wrong, second off not complete, there is alot of changes you are missing.

0 reply
N04Hz_Ark wrote on November 15 2014, 01:11 am, edited at 01:11 am

Lack of accuracy. Tab incomplete. Clearly wrong.

I want to post or [tab]
guest
You may want to rate the tab now too:
select rating
Please do not post tabs as comments. Select "correction" instead!