Oops, an error
Loading. Please wait.

Crystalised Tab

version 1
version 1

Whole song

Interactive

438,111 views 123 this week
3 commentsread comments
1 2 3 4 5
x 42
add to favorites
launch autoscroll
font size
0
reset
how to read this tab
guitar tuner
Autoscroll
slow
fast
+/-
esc
set tempo
stop
Help us to improve Ultimate-Guitar.com Take our survey!
×
The XX - Crystalised

Before you start: This tab is a bit different from most tabs; I included the time count, 
put it inbetween two lines.
I also included a tab for a second guitar in the same way.


Also note that all numbers are under 10, so
---2210--2-2-10----------| is actually
------2-2-1-0----2--2--1-0---- and NOT ------2-2-10-----2--2--10-----|


   1st guitar
e:-----22102-2-2-0---------------------22102-2-2-0------------------|
B:--0-------------2/0--03333--------0-------------2/0--03333--------|
G:------------------------------------------------------------------|
D:------------------------------------------------------------------|
A:------------------------------------------------------------------|
E:------------------------------------------------------------------|
    1-:-2-:-3-:-4-:-5-:-6-:-7-:-8-:-1-:-2-:-3-:-4-:-5-:-6-:-7-:-8-:-|
e:------------------------------------------------------------------|
B:------------------------------------------------------------------|
G:--44447776666676744449999/6666676744447776666676744449999/6-------|
D:------------------------------------------------------------------|
A:------------------------------------------------------------------|
E:------------------------------------------------------------------|

   2st guitar
e:------------------------------------------------------------------|
B:--0--033-2-2-23-3-----------------0--033-2-2-23-3-----------------|
G:------------------------------------------------------------------|
D:------------------2--222/5-5---55/9---------------2--222/5-5------|
A:------------------------------------------------------------------|
E:------------------------------------------------------------------|
    1-:-2-:-3-:-4-:-5-:-6-:-7-:-8-:-1-:-2-:-3-:-4-:-5-:-6-:-7-:-8-:-|
e:------------------------------------------------------------------|
B:------------------------------------------------------------------|
G:------------------------------------------------------------------|
D:--2222222222222222----------------2222222222222222----------------|
A:-------------------2-2-2-0-0-0---------------------2-2-2-0-0-0----|
E:------------------------------------------------------------------|


--- Vocals Only Part Starts ---
(Vocal + base line/second guitar:)


2nd guitar/base line
e:------------------------------------------------------------------|
B:------------------------------------------------------------------|
G:------------------------------------------------------------------|
D:------------------------------------------------------------------|
A:-------------------2-2-2-0-0-0---------------------2-2-2/4-4-45-5-|
E:--0000000-000000------------------0000000-0000000-----------------|
    1-:-2-:-3-:-4-:-5-:-6-:-7-:-8-:-1-:-2-:-3-:-4-:-5-:-6-:-7-:-8-:-|
e:------------------------------------------------------------------|
B:------------------------------------------------------------------|
G:------------------------------------------------------------------|
D:------------------------------------------------------------------|
A:-------------------2-2-2-0-0-0---------------------2-2-2/4-4-45-5-|
E:--00000000-0-00000----------------00000000-0-00000----------------|
    1-:-2-:-3-:-4-:-5-:-6-:-7-:-8-:-1-:-2-:-3-:-4-:-5-:-6-:-7-:-8-:-|
e:------------------------------------------------------------------|
B:------------------------------------------------------------------|
G:------------------------------------------------------------------|
D:------------------------------------------------------------------|
A:-------------------2-2-2-0-0-0-000-----------------2-2-2/4-4-45-5-|
E:--00000000000000------------------0000000000000000----------------|


--- Vocals Only Part Ends ---

   1st guitar
e:------------------------------------------------------------------|
B:---30-30-30-30-30-3-3-3332-2-2-222-30-30-30-30-30--3-3-333/2------|
G:--1--1--1--1--1--1----------------1--1--1--1--1--1----------------|
D:------------------------------------------------------------------|
A:------------------------------------------------------------------|
E:------------------------------------------------------------------|
    1-:-2-:-3-:-4-:-5-:-6-:-7-:-8-:-1-:-2-:-3-:-4-:-5-:-6-:-7-:-8-:-|
e:------------------------------------------------------------------|
B:------------------------------------------------------------------|
G:--44447776666666644449999/6666676744447776666676744449999/66666767
D:------------------------------------------------------------------|
A:------------------------------------------------------------------|
E:------------------------------------------------------------------|

   2nd guitar
e:------------------------------------------------------------------|
B:------------------------------------------------------------------|
G:------------------------------------------------------------------|
D:--2222222222222222----------------2222222222222222----------------|
A:-------------------2-2-2-0-0-0-000-----------------2-2-2-0-0-0----|
E:------------------------------------------------------------------|
    1-:-2-:-3-:-4-:-5-:-6-:-7-:-8-:-1-:-2-:-3-:-4-:-5-:-6-:-7-:-8-:-|
e:------------------------------------------------------------------|
B:------------------------------------------------------------------|
G:------------------------------------------------------------------|
D:------------------------------------------------------------------|
A:---------------------------------------------------2-2-2/4-4-45-5-|
E:----------------------------------0000000000000000----------------|

1st guitar
e:------------------------------------------------------------------|
B:------------------------------------------------------------------|
G:--44447776666676744449999/6666676744447776666676744449999/6-------|
D:------------------------------------------------------------------|
A:------------------------------------------------------------------|
E:------------------------------------------------------------------|
    1-:-2-:-3-:-4-:-5-:-6-:-7-:-8-:-1-:-2-:-3-:-4-:-5-:-6-:-7-:-8-:-|
e:------------------------------------------------------------------|
B:---30-30-30-30-30-3-3-3332-2-2-222-30-30-30-30-30--3-3-333/2--222-|
G:--1--1--1--1--1--1----------------1--1--1--1--1--1----------------|
D:------------------------------------------------------------------|
A:------------------------------------------------------------------|
E:------------------------------------------------------------------|

2nd guitar
e:------------------------------------------------------------------|
B:------------------------------------------------------------------|
G:------------------------------------------------------------------|
D:------------------------------------------------------------------|
A:-------------------2-2-2-0-0-0-000-----------------2-2-2-0-0-0----|
E:--0000000000000000----------------0000000000000000----------------|
    1-:-2-:-3-:-4-:-5-:-6-:-7-:-8-:-1-:-2-:-3-:-4-:-5-:-6-:-7-:-8-:-|
e:------------------------------------------------------------------|
B:------------------------------------------------------------------|
G:------------------------------------------------------------------|
D:------------------------------------------------------------------|
A:-------------------2-2-2-0-0-0---------------------2-2-2/4-4-45-5-|
E:--0000000000000000----------------0000000000000000----------------|


1st guitar
e:------------------------------------------------------------------|
B:---30-30-30-30-30-3-3-3332-2-2-222-30-30-30-30-30--3-3-333/2--222-|
G:--1--1--1--1--1--1----------------1--1--1--1--1--1----------------|
D:------------------------------------------------------------------|
A:------------------------------------------------------------------|
E:------------------------------------------------------------------|
    1-:-2-:-3-:-4-:-5-:-6-:-7-:-8-:-1-:-2-:-3-:-4-:-5-:-6-:-7-:-8-:-|


2nd guitar
e:------------------------------------------------------------------|
B:------------------------------------------------------------------|
G:------------------------------------------------------------------|
D:------------------------------------------------------------------|
A:-------------------2-2-2-0-0-0---------------------2-2-2-0--------|
E:--0000000000000000----------------0000000000000000----------------|
    1-:-2-:-3-:-4-:-5-:-6-:-7-:-8-:-1-:-2-:-3-:-4-:-5-:-6-:-7-:-8-:-|


--- Small Vocal Part ---


1st guitar
e:-------------------------------------------------------------------|
B:-------------------------------------------------------------------|
G:-------------------4-4-4-2-2-2---------------------4---4/2----2//4-|
D:--2222222222222222----------------2222222222222222-----------------|
A:-------------------------------------------------------------------|
E:-------------------------------------------------------------------|
    1-:-2-:-3-:-4-:-5-:-6-:-7-:-8-:-1-:-2-:-3-:-4-:-5-:-6-:-7-:-8-:--|

                                            rit.
2nd guitar
e:-------------------------------------------------------------------|
B:-------------------------------------------------------------------|
G:-------------------------------------------------------------------|
D:-------------------------------------------------------------------|
A:-------------------2-2-2-0-0-0---------------------2---2/0----0//2-|
E:--0000000000000000----------------0000000000000000-----------------|
    1-:-2-:-3-:-4-:-5-:-6-:-7-:-8-:-1-:-2-:-3-:-4-:-5-:-6-:-7-:-8-:--|



************************************

| /  Slide up

************************************
Suggest correction
comments
print report bad tab
3 comments total.
0 reply
m1dnight 83 Oct 06, 2009 06:29 AM

it sounds right, but having seen them play it, its in the wrong place on the neck

+3 reply
badseed333 256 Jul 22, 2010 03:54 AM

e:-----2210----------0-------------------------------------|
B:--0--------2-2-2-3---3--0----03333-----------------------|
G:---------------------------------------------------------|
D:---------------------------------------------------------|
A:---------------------------------------------------------|
E:---------------------------------------------------------|

0 reply
benchemikal 10 Jun 23, 2014 06:14 PM

come on guys. I figured this verse part out by ear in literally 3 mins after getting frustrated by all these weird tabs.
the roots are G - D minor - ending on a Cmaj, so try something like

e:--1----1----1----1----------1-1-1-1-1-1-----1/0------------0-1-0-----
B:----3-----3-----3----3----3-------------------------------------------
G:--------0-----0-----0-----0---2-2-2-2-2-2-----------------------------
D:------------------------------0-0-0-0-0-0-------2-2-2-2---------------
A:-2----------------------------------------------3-3-3-3--------------
E:-3---3-----------------------------------------
----------------

tabbed by Ben Hodding / Ben Chemikal june 2014

guest
You may want to rate the tab now too:
select rating
Wanna post a correction for this tab? Suggest correction