Oops, an error
Loading. Please wait.
We have an official Crystalised tab made by UG professional guitarists. Check out the tab »
×
by The xx
1,767 views 18 this week
no commentswrite comment
1 2 3 4 5
x 3
add to favorites
×
Save as Personal and add changes to this tab that will be seen only by you. Learn more ›
×
You can save this tab as Personal to edit and correct it or add notes. All changes will be seen only by you. Learn more »
launch autoscroll
font size
0
reset
transpose
0
reset
display chords
guitar tuner
edit
Autoscroll
slow
fast
+/-
esc
set tempo
stop
Author
Difficulty
Strumming
There is no strumming pattern for this song yet. and get +5 IQ
This is my first ever tab I think most of it is pretty spot on but Im still unsure about 
the chorus-let me know if you find a better way

Intro
--9987999-5-7-5\2--2-2555--------9987999-5-7-5\2--2-2555---------|
7-7---999----------0-050-3---107--7--999----------0-050-3---107--|
----7-----------------------7------7-----------------------------|
-----------------------------------------------------------------|

2222555444444542222/7774-4-4545-2222555444444542222/7774-4-4-|
0000000000000002222/7775-5-5----0000000000000002222/7775-5-5-|
444444444444444-----------------444444444444444--------------|
-------------------------------------------------------------|
verse (silent)
You've applied the pressure
To have me crystalised
And you've got the faith
That I could bring paradise

I'll forgive and forget
Before I'm paralyzed
Do I have to keep up the pace
To keep you satisfied

Things have gotten closer to the sun
And I've done things in small doses
So don't think that I'm pushing you away
When you're the one that I've kept closest

Chorus
Ahh, ahh, ahh x 4
--7--7--7--55554---|
---7--7--7---------|
-7--7--7--7--------|
-------------------|  x4

Verse2
-----------------------------------------------|
-7777/101010\99999109107777/1212129-9-9-10910--|
-----------------------------------------------|
-----------------------------------------------| x3

-------------------------------------|
-7777/101010\99999109107777/121212\9-|
-------------------------------------|
-------------------------------------|
You don't move slow
Taking steps in my directions
The sound resounds, echo
Does it lessen your affection
No

You say I'm foolish
For pushing this aside
But burn down our home
I won't leave alive Ahh, ahh, ahhh

--7--7--7--5-5-5-5/4-4-4-4545------|
---7--7--7-------------------------|
-7--7--7--7------------------------|
-----------------------------  x 2-|
Glaciers have melted to the sea
I wish the tide would take me over
I've been down on my knees
And you just keep on getting closer

Chorus
Ahh, ahh, ahh x 4
--7--7--7--55554---|
---7--7--7---------|
-7--7--7--7--------|
-------------------|  x4

(silent)
Placid as I melt into the sea
(Things have gotten closer to the sun)
I wish the tide would take me over
(And I've done things in small doses)
I've been down onto my knees
(So don't think that I'm pushing you away)
And you just keep on getting closer
(When you're the one that I've kept closest)

Go slow

Ending
Go slow x 5
-------------------------------|
7777777777777777-7-7-7-5-5-5-5-|
-----------------6-6-6-4-4-4-4-|
-------------------------------|

-------------------------------|
7777777777777777-7-7/5-5-5-----|
-----------------6-6/4-4-------|
-------------------------------|

            
            
Suggest correction
Creating personal tab
Creating personal tab
You can edit any tab online and save it as your Personal.

You can edit, replace or remove any tab part or add personal notes – all changes will be seen only by you.

Personal tabs can be accessed anytime from any device, even offline.
Learn more »
Give kudos to tab author, rate the tab!
1 2 3 4 5
comments
print report bad tab
guest
You may want to rate the tab now too:
select rating
Wanna post a correction for this tab? Suggest correction