Oops, an error
Loading. Please wait.

Crystalised Bass Tab

version 2
version 2

Whole song

Interactive

5,525 views 24 this week
no commentswrite comment
1 2 3 4 5
poor
x 1
add to favorites
launch autoscroll
font size
0
reset
guitar tuner
Tab Pro tools
  • play this tab
  • loop segment
  • change instrument
  • show fretboard
  • metronome
Autoscroll
slow
fast
+/-
esc
set tempo
stop
Contributor
Difficulty
novice
Crystalised by the XX
From the album XX

this is like my version of the bass for this song. but i think it actually goes well 
with the song.


G----------11-11-10-9-9-9-----------------------------------|
D---9--9-9----------------11-12-11/2-2-2-2-2-2/5-5-5-5-5/9--|
A-----------------------------------------------------------|
E-----------------------------------------------------------|

G----------11-11-10-9-9-9-----------------------------------|
D---9--9-9----------------11-12-11/2-2-2-2-2-2/5-5----------|
A-----------------------------------------------------------|
E-----------------------------------------------------------|

This part is all full of 9th 12th and 11th frets. not the 1st or 2nd frets.

G-------------------------------|
D---99999/1212121111111111121112|
A-------------------------------|
E-------------------------------|

Same thing for this one                                      X2

G--------------------------------|
D-99999/1414141111111111121112---|
A--------------------------------|
E--------------------------------|

G-----------------------------------------------------------------|
D-----------------------------------------------------------------|
A-777777-77777777-----------------777777-77777777-----------------|   X2
E-----------------7-7-7--5-5-5-555----------------7-7-7--9-9-9-999|

G-----------------------------------------------------------------|
D-----------------------------------------------------------------|
A-777777777777777-----------------777777777777777-----------------|
E-----------------7-7-7--5-5-5-555----------------7-7-7--9-9-9-999|

This one is 11 on the A string and 12th and 9th on the D string just in case ur confused

G----------------------------------------------------------------|
D---129--129--129--129--129--12-12-12121212/11--111111--111111---|
A-11---11---11---11---11---11------------------------------------|      X2
E----------------------------------------------------------------|

G-------------------------------------------------------------|
D-99999/12121211111111111111111199999/1414141111111111121112--|
A-------------------------------------------------------------|
E-------------------------------------------------------------|

G-------------------------------------------------------------|
D-99999/12121211111111111112111299999/1414141111111111111111--|
A-------------------------------------------------------------|
E-------------------------------------------------------------|

G-------------------------------------------------------------|
D-99999/12121211111111111112111299999/1414141111111111121112--|
A-------------------------------------------------------------|
E-------------------------------------------------------------|

G-------------------------------------------------------------|
D-99999/12121211111111111112111299999/14141414/11-------------|
A-------------------------------------------------------------|
E-------------------------------------------------------------|

G-------------------------------------------------------------|
D---129--129--129--129--129--12-12121212/11--111111--111111---|
A-11---11---11---11---11---11---------------------------------|      X3
E-------------------------------------------------------------|

G-------------------------------------------------------------|
D---129--129--129--129--129--12-12121212/11-------------------|
A-11---11---11---11---11---11---------------------------------|
E-------------------------------------------------------------|

-BREAK-

This time this part is slower

G-----------------------------------------------------------------|
D-----------------------------------------------------------------|
A-777777777777777-----------------777777777777777----------7------|
E-----------------7-7-7--5-5-5-555----------------7~-7/5-7-7------|



Finish
comments
We did not receive enough feedback on this tab! Please rate:
print report bad tab
1 2 3 4 5
I want to post or [tab]
guest
You may want to rate the tab now too:
select rating
Please do not post tabs as comments. Select "correction" instead!