Oops, an error
Loading. Please wait.

Crystalised Tab

version 8
version 8

Intro

Interactive

2,567 views 1 this week
no commentswrite comment
1 2 3 4 5
accurate
x 1
add to favorites
launch autoscroll
font size
0
reset
how to read this tab
guitar tuner
Tab Pro tools
  • play this tab
  • loop segment
  • change instrument
  • show fretboard
  • metronome
Autoscroll
slow
fast
+/-
esc
set tempo
stop
Contributor
Difficulty
novice
-------------------------------------------------------------------------------
                             The Xx - Crystalised
-------------------------------------------------------------------------------

So guys, this is my first tab!  Ive been playing this song recently and havent 
been happy with any of the tabs of this song on here so i thought id try and put 
one up... hope you enjoy!

Tabbed by: dinosaur4141
Email: dinosaur4141@yahoo.com

Tuning: Standard

GUITAR 1:                          (4) - let 4 ring  

e|-------------------------------------------------------------------------|
B|-------------------------------------------------------------------------|
G|-4-777/11-11-11-7-9-7\4-4-777-(4)--474-777/11-11-11-7-9-7\4-4-777-(4)----|
D|-------------------------------------------------------------------------|
A|-------------------------------------------------------------------------|
E|-------------------------------------------------------------------------|

GUITAR 2:

e|-------------------------------------------------------------------------|
B|-------------------------------------------------------------------------|
G|--11-11-10-9-----------9----------------11-11-10-9-----------9-----------|
D|-9----------11-11-11-12-12\2-2222-5-55/9----------11-11-11-12-12\2-2222-5|
A|-------------------------------------------------------------------------|
E|-------------------------------------------------------------------------|

GUITAR 1:

e|-------------------------------------------------------------------------|
B|--4444/777-666666767\4444/999-666666767\4444/777-666666767\4444/999\6----|
G|-------------------------------------------------------------------------|
D|-------------------------------------------------------------------------|
A|-------------------------------------------------------------------------|
E|-------------------------------------------------------------------------|

GUITAR 2:

e|-------------------------------------------------------------------------|
B|-------------------------------------------------------------------------|
G|--9999999999999999------------------9999999999999999---------------------|
D|--9999999999999999-9-9-9-7-7-7-77---9999999999999999-9-9-9-7-7-7---------|
A|--7777777777777777-9-9-9-7-7-7-77---7777777777777777-9-9-9-7-7-7---------|
E|-------------------7-7-7-5-5-5-55--------------------7-7-7-5-5-5---------|

"You've applied the pressure
To have me crystalized
And you've got the faith
That I could bring paradise

I'll forgive and forget
Before I'm paralyzed
Do I have to keep up the pace
To keep you satisfied

Things have gotten closer to the sun
And I've done things in small doses
So don't think that I'm pushing you away
When you're the one that I've kept closest

(Ahh ahh ahh) (x4) ---------------------------Start Playing At 2nd Ahh

GUITAR 1:

e|------------------------------------------------------------------------|
B|------------------------------------------------------------------------|
G|---74-74-74-74-74-7-7-7777\666-666--74-74-74-74-74-777777\6-------------|
D|--6--6--6--6--6--6-----------------6--6--6--6--6--6---------------------|
A|------------------------------------------------------------------------|
E|------------------------------------------------------------------------|

GUITAR 2:

e|-------------------------------------------------------------------------|
B|-------------------------------------------------------------------------|
G|--9999999999999999------------------9999999999999999---------------------|
D|--9999999999999999-9-9-9-7-7-7-77---9999999999999999-9-9-9-7-7-7---------|
A|--7777777777777777-9-9-9-7-7-7-77---7777777777777777-9-9-9-7-7-7---------|
E|-------------------7-7-7-5-5-5-55--------------------7-7-7-5-5-5---------|

You don't move slow
And taking steps in my direction
The sound resounds, echo
Does it lessen your affection

GUITAR 1:

e|-------------------------------------------------------------------------|
B|-------------------------------------------------------------------------|
G|--4444777\666666666\4444/999666666666\4444/777\666666666\4444/9996-------|
D|-------------------------------------------------------------------------|
A|-------------------------------------------------------------------------|
E|-------------------------------------------------------------------------|

No

You say I'm foolish
For pushing this aside
But burn down our home
I won't leave alive

GUITAR 1:

e|-------------------------------------------------------------------------|
B|-------------------------------------------------------------------------|
G|--4444777\666666666\4444/999666666666\4444/777\666666666\4444/9996-------|
D|-------------------------------------------------------------------------|
A|-------------------------------------------------------------------------|
E|-------------------------------------------------------------------------|

GUITAR 2:

e|-------------------------------------------------------------------------|
B|-------------------------------------------------------------------------|
G|--9999999999999999------------------9999999999999999---------------------|
D|--9999999999999999-9-9-9-7-7-7-77---9999999999999999-9-9-9-7-7-7---------|
A|--7777777777777777-9-9-9-7-7-7-77---7777777777777777-9-9-9-7-7-7---------|
E|-------------------7-7-7-5-5-5-55--------------------7-7-7-5-5-5---------|

Glaciers have melted to the sea
I wish the tide would take me over
I've been down on my knees
And you just keep on getting closer

(Ahh ahh ahh) (x4)

GUITAR 1:                        x2

e|-------------------------------------------------------------------------|
B|-------------------------------------------------------------------------|
G|---74-74-74-74-74-7-7-7777\666-666--74-74-74-74-74-777777\6--------------|
D|--6--6--6--6--6--6-----------------6--6--6--6--6--6----------------------|
A|-------------------------------------------------------------------------|
E|-------------------------------------------------------------------------|

GUITAR 2:                        x2

e|-------------------------------------------------------------------------|
B|-------------------------------------------------------------------------|
G|--9999999999999999------------------9999999999999999---------------------|
D|--9999999999999999-9-9-9-7-7-7-77---9999999999999999-9-9-9-7-7-7---------|
A|--7777777777777777-9-9-9-7-7-7-77---7777777777777777-9-9-9-7-7-7---------|
E|-------------------7-7-7-5-5-5-55--------------------7-7-7-5-5-5---------|

Glaciers have melted to the sea (Things have gotten closer to the sun)
I wish the tide would take me over (And I've done things in small doses)
I've been down onto my knees (So don't think that I'm pushing you away)
And you just keep on getting closer (When you're the one that I've kept closest)

GUITAR 2:         ----------- verse above -> no guitar... the ending is as follows

e|-------------------------------------------------------------------------|
B|-------------------------------------------------------------------------|
G|--9999999999999999------------------9999999999999999-----------9---------|
D|--9999999999999999-9-9-9-7-7-7-77---9999999999999999-9-9\7-7-7-9---------|
A|--7777777777777777-9-9-9-7-7-7-77---7777777777777777-9-9\7-7-7-7---------|
E|-------------------7-7-7-5-5-5-55--------------------7-7\5-5-5-----------|



************************************

| /   slide up
| \   slide down
| h   hammer-on
| p   pull-off
| ~   vibrato
| +   harmonic
| x   Mute note
| b   Bend
| pb  Pre-bend
| br  Bend release
| pbr Pre-bend release
| brb Bend release bend

************************************
comments
We did not receive enough feedback on this tab! Please rate:
print report bad tab
1 2 3 4 5
I want to post or [tab]
guest
You may want to rate the tab now too:
select rating
Please do not post tabs as comments. Select "correction" instead!