Oops, an error
Loading. Please wait.

Fantasy Bass Tab

version 2
version 2

Whole song

618 views 1 this week
1 commentread comment
1 2 3 4 5
please rate
add to favorites
launch autoscroll
font size
0
reset
guitar tuner
Autoscroll
slow
fast
+/-
esc
set tempo
stop
Help us to improve Ultimate-Guitar.com Take our survey!
×
Author
Difficulty
novice
My very first tab. I noticed that the tabs for this song were slightly off so I decided 
to just transcribe it for my 5 string.


Bass starts at (1:22)

G||------------------------|-----------------------|------------------------|
D||------------------------|-----------------------|------------------------|
A||------------------------|-----------------------|------------------------|
E||------------------------|-----------------------|------------------------|
B||--13---13---13---13-----|--13---13---13---------|---13h12h11h10---9---9--|

-----------------------|------------------------|-----------------------||
-----------------------|------------------------|-----------------------|| 3x
-----------------------|------------------------|-----------------------||
---9---9---9---9---9---|--9s---23s--------------|-----------------------||

G||------------------------|-----------------------|------------------------|
D||------------------------|-----------------------|------------------------|
A||------------------------|-----------------------|------------------------|
E||------------------------|-----------------------|------------------------|
B||--13---13---13---13-----|--13---13---13---------|---13h12h11h10---9---9--|

-----------------------|------------------------|-----------------------||
-----------------------|------------------------|-----------------------||
-----------------------|------------------------|-----------------------||
-----------------------|------------------------|-----------------------||
---9---9-23s-----------|------------------------|-----------------------||
Suggest correction
Give kudos to tab author, rate the tab!
1 2 3 4 5
comments
print report bad tab
1 comment total.
0 reply
R3dcr1ms0n 31 wrote on July 18 2012, 05:39 am

All the H's(hammer ons) I put are supposed to be pull offs. Sorry about that

guest
You may want to rate the tab now too:
select rating
Wanna post a correction for this tab? Suggest correction