Oops, an error
Loading. Please wait.

Heart Skipped A Beat Bass Tab

version 1
version 1

Whole song

Interactive

9,934 views 3 this week
no commentswrite comment
1 2 3 4 5
accurate
x 4
add to favorites
launch autoscroll
font size
0
reset
guitar tuner
Autoscroll
slow
fast
+/-
esc
set tempo
stop
Help us to improve Ultimate-Guitar.com Take our survey!
×
Contributor
Difficulty
kingw 96
novice
-------------------------------------------------------------------------------
			     Heart Skipped A Beat - The Xx
-------------------------------------------------------------------------------

Tabbed By:  kingw
e-mail:     kingwilkinson@hotmail.co.uk

Tuning:     Standard


*Listen to song for timing and note length*


VERSE
G|-------------------------------------|
D|-------------------------------------|
A|-7-\-14-/-11-\-14--7-\-14-/-11-/-9---|
E|----------------------------------7--|x2

PRE-CHORUS
G|---------------------------------------------------------------------|
D|---------------------------------------------------------------------|
A|-7-777--7-777--14-141414--14-141414--11-111111--11-111111------------|
E|-----------------------------------------------------------7-777--7--|

1st CHORUS
G|----------------------------------------------------------------------|
D|----------------------------------------------------------------------|
A|-11-111111--11-111111--7-777--7--777--4-444--4-444--6666666677776666--|
E|----------------------------------------------------------------------|

BASS INTERLUDE
G|-------------------------------------|
D|-------------------------------------|
A|-7-\-14-/-11-\-14--7-\-14-/-11-/-9---|
E|----------------------------------7--|

BACK TO VERSE

NO BASS UNTIL 2nd CHORUS

2nd CHORUS
G|---------------------------------------------------------------------|
D|---------------------------------------------------------------------|
A|-11--14--7--66-666-7777-6666--11x16-\-14x16-/-7x16-6666666677776666--|
E|---------------------------------------------------------------------|


G|-------------------------------------------|
D|-------------------------------------------|
A|-11x16-\-14x16-/-7x16-6666666677776666\11--|
E|-------------------------------------------|

OUTRO
G|-----------------------------------------------------------------------------------|
D|-----------------------------------------------------------------------------------|
A|-11--4-----7--9-11-----------------------------------------------------------------|
E|--------7--------------------------------------------------------------------------|



| /  slide up
| \  slide down
| h  hammer-on
| p  pull-off
| ~  vibrato
| +  harmonic
| x  Mute note
===============================================================================
comments
print report bad tab
I want to post or [tab]
guest
You may want to rate the tab now too:
select rating
Please do not post tabs as comments. Select "correction" instead!