Oops, an error
Loading. Please wait.

Heart Skipped A Beat Tab

version 2
version 2

Whole song

Interactive

26,994 views 36 this week
1 commentread comment
1 2 3 4 5
excellent!
x 13
add to favorites
launch autoscroll
font size
0
reset
how to read this tab
guitar tuner
Tab Pro tools
  • play this tab
  • loop segment
  • change instrument
  • show fretboard
  • metronome
×
Best way to learn
"Heart Skipped A Beat"
Autoscroll
slow
fast
+/-
esc
set tempo
stop
Difficulty
novice
My first tabs ever!
-so i basically watched them performing live on youtube over and over and here's the
accurate tabs ever!
-btw, i got sick of repeating the same number 16 times, so i just put (16x) or (8x) for
note thats repeated that many times

Tuning: Standard

  Intro:
e|-----------------------------------------------------------------------------|
B|-----------------------------------------------------------------------------|
G|-----------------------------------------------------------------------------|
D|--9/11/13----13\11\9----9/13----13-13-13-11--11h13--9-9-11-11h13-11h13-9h11--|
A|-----------------------------------------------------------------------------|
E|-----------------------------------------------------------------------------|

  Verse: "Please don´t say we´re done when I´m not finished..."-->(repeat 4x)
e|--------------------------------------------------------------------------|
B|--------------------------------------------------------------------------|
G|--------------------------------------------------------------------------|
D|---9/11/13--13\11\9-------------------------------------------------------|
A|--------------------------------------------------------------------------|
E|--------------------------------------------------------------------------|

  Bridge: "Sometimes I still need you..."           -->(repeat 4x)
e|---------------------------------------|
B|---------------------------------------|
G|---------------------------------------|
D|---13 (4x)—11 (4x)—9 (8x)--------------|
A|---------------------------------------|
E|---------------------------------------|

  Solo:
e|--------------------------------------------------------------------------|
B|--------------------------------------------------------------------------|
G|--------------------------------------------------------------------------|
D|13--13-13--13-13----16-13-13-14-13-13-----13/9-9-9-9-9-9-9-9/13-----------|
A|--------------------------------------------------------------------------|
E|--------------------------------------------------------------------------|

e|----------------------------------------------------------------------------------|
B|----------------------------------------------------------------------------------|
G|----------------------------------------------------------------------------------|
D|--13-13/11-11-11-6 (8x)----8-8-8-9-9-8-1-1-1-1-2-1---9/11—11/13--13---------------|
A|----------------------------------------------------------------------------------|
E|----------------------------------------------------------------------------------|

(actually played by bass)-->(repeat one more time)
e|--------------------------------------------------------------------------|
B|--------------------------------------------------------------------------|
G|--------------------------------------------------------------------------|
D|--------------------------------------------------------------------------|
A|--------------------------------------------------------------------------|
E|---------0------------7--------------4---------------7--------------------|

Bridge:"And I was strugglin' to get in, left waitin'..." -->(repeat 4x)
e|--------------------------------------------------------------------------|
B|--------------------------------------------------------------------------|
G|------11----11--13------------11------------------------------------------|
D|-9-9-----9---------------9-9-----9-11-9-----------------------------------|
A|--------------------------------------------------------------------------|
E|--------------------------------------------------------------------------|


  Solo II: (played by keyboard)--->(repeat so this whole loop plays 4x)
e|--------------------------------------------------------------------------|
B|-----12-------------12------------12--------------12---------12-----------|
G|---------13------------13------------13--------------13---------13--------|
D|--13-------------13-------------13--------------13------------------------|
A|--------------------------------------------------------------------------|
E|--------------------------------------------------------------------------|

e|--------------------------------------------------------------------------|
B|---12-----------12----------12-----------12-----------12------------------|
G|-------11---------11------------11----------11----------11----------------|
D|--------------------------------------------------------------------------|
A|--------------------------------------------------------------------------|
E|--------------------------------------------------------------------------|

e|--------------------------------------------------------------------------|
B|-12-14-----12-14-----12-14-----12-14-----12-14----------------------------|
G|--------------------------------------------------------------------------|
D|--------------------------------------------------------------------------|
A|--------------------------------------------------------------------------|
E|--------------------------------------------------------------------------|

e|--------------------------------------------------------------------------|
B|-12-16--------12-16--------12-16--------12-16-14-12-16-14-12-16-14--------|
G|--------------------------------------------------------------------------|
D|--------------------------------------------------------------------------|
A|--------------------------------------------------------------------------|
E|--------------------------------------------------------------------------|

e|----------------------------------------------------------------------------------|
B|----12------------12--------------------12-14------------12-16--------------------|
G|------13—(5x)-------11----(5x)---------------(5x)-------------(5x)----------------|
D|--13------------------------------------------------------------------------------|
A|----------------------------------------------------------------------------------|
E|----------------------------------------------------------------------------------|

  Chorus:"Heart skipped a beat, and when I caught it you were out of reach.."
e|--------------------------------------------------------------------------|
B|--------------------------------------------------------------------------|
G|--------------------------------------------------------------------------|
D|13 (16x)------9 (16x)---6 (16x)------1 (16x)------------------------------|
A|--------------------------------------------------------------------------|
E|--------------------------------------------------------------------------|

e|--------------------------------------------------------------------------|
B|--------------------------------------------------------------------------|
G|--------------------------------------------------------------------------|
D|13 (16x)------9(16x)---6 (16x)------1(8x)-2-2-2-1-------------------------|
A|--------------------------------------------------------------------------|
E|--------------------------------------------------------------------------|

Solo: --> (repeat 2x)
e|--------------------------------------------------------------------------|
B|--------------------------------------------------------------------------|
G|--------------------------------------------------------------------------|
D|13 (8x)--16-13-13-14-13-13-13/9---9(8x)---9/13----------------------------|
A|--------------------------------------------------------------------------|
E|--------------------------------------------------------------------------|

e|----------------------------------------------------------------------------------|
B|----------------------------------------------------------------------------------|
G|----------------------------------------------------------------------------------|
D|--13-13/11-11-11-6 (16x)—1 (8x)-2-2-2-1-------------------------------------------|
A|----------------------------------------------------------------------------------|
E|----------------------------------------------------------------------------------|

Outro:
e|--------------------------------------------------------------------------|
B|--------------------------------------------------------------------------|
G|--------------------------------------------------------------------------|
D|---13----13/11----11/9----9/13-----11----9--------------------------------|
A|--------------------------------------------------------------------------|
E|--------------------------------------------------------------------------|

-iisarahaha <3
comments
print report bad tab
1 comment total.
0 reply
c0up wrote on December 11 2010, 10:25 pm

Awesome tab! Cheers

I want to post or [tab]
guest
You may want to rate the tab now too:
select rating
Please do not post tabs as comments. Select "correction" instead!