Oops, an error
Loading. Please wait.

Intro Bass Tab

version 1
version 1

Whole song

Interactive

22,642 views 87 this week
no commentswrite comment
1 2 3 4 5
x 10
add to favorites
launch autoscroll
font size
0
reset
guitar tuner
Autoscroll
slow
fast
+/-
esc
set tempo
stop
Help us to improve Ultimate-Guitar.com Take our survey!
×
Author
Difficulty
novice
Standard tuning

Wasn't too difficult to figure out, hope you enjoy and it was useful.


[Intro]

G|-----------------------------------------------------------------|
D|--------------------------------------------------0--2-2-2--2----|
A|----------------3----------3------3---------------------------3--|
E|--1----5----1-----5----1-----5------1------12/5------------------|


[Chorus]
(directly leading from intro)

G|------------------------------------------|
D|------3-------3--5--7--7-7--0--2-2-2--2---|
A|----------------------------------------3-|
E|--1------0-1------------------------------|(x2)


[Bridge]

G|---------------------------------------------|
D|---------------------------------------------|
A|-------------3-----------------0-3--3--3--3--|
E|--1-----5------1---0-1--12/5-----------------|


[Chorus]

G|------------------------------------------|
D|------3-------3--5--7--7-7--0--2-2-2--2---|
A|----------------------------------------3-|
E|--1------0-1------------------------------|(x4)



************************************

| /  Slide up

************************************
Suggest correction
comments
print report bad tab
guest
You may want to rate the tab now too:
select rating
Wanna post a correction for this tab? Suggest correction