Oops, an error
Loading. Please wait.

Intro Tab

version 1
version 1
46,470 views 195 this week
1 commentread comment
1 2 3 4 5
excellent!
x 33
add to favorites
launch autoscroll
font size
0
reset
how to read this tab
guitar tuner
Tab Pro tools
  • play this tab
  • loop segment
  • change instrument
  • show fretboard
  • metronome
Autoscroll
slow
fast
+/-
esc
set tempo
stop
Contributor
Difficulty
novice
E-----------------------------------------------------|
B-----------------------------------------------------|
G--2(12x)--5(12x)--7(12x)--9-9-9-9-9-9--7-7-7--5-5-0--|  repeat it
D-----------------------------------------------------|
A-----------------------------------------------------|
E-----------------------------------------------------|


then

E-----------------------------------------------------------------------|
B-----------------------------------------------------------------------|
G--0--2-2--5-5--7-7--5-5--2--5-5--7-7--5-5---2-2-5-5-9-9-5-5-7-7-5-5-9--|
D-----------------------------------------------------------------------|
A-----------------------------------------------------------------------|
E-----------------------------------------------------------------------|


I figured some chords out,too... it's  Am  and  F


So have fun with it! ;)

The xx rules!
comments
print report bad tab
1 comment total.
+4 reply
dakotaph wrote on September 15 2014, 11:58 pm

It's 5 (I think. Not going to count) notes. You can do it without moving your hand this way.
E--------------------------0-0-0-0-0-0----------------|
B----------1-(12x)--3(12x)--------------3-3-3--1-1----|
G--2(12x)------------------------------------------0--| repeat it
D-----------------------------------------------------|
A-----------------------------------------------------|
E-----------------------------------------------------|

then

E----------------------------------------------------0-0-------------0--|
B----------1-1--3-3--1-1-----1-1--3-3--1-1-------1-1-----1-1-3-3-1-1----|
G--0--2-2-----------------2------------------2-2------------------------|
D-----------------------------------------------------------------------|
A-----------------------------------------------------------------------|
E-----------------------------------------------------------------------|

This also goes a long way in figuring out the chords associated with it. A lot of pop songs use the chords : Am F C and G . It's a good first guess. Look at the notes for the intro. 2nd fret on the G fits the Am chord shape. So does first on the B string. Third fret on the B string fits the G chord (depending on how you play it. I do 320033 EADGBE. Finally, an open pluck on the high E could be Am or C, let's go with Am.

In theory the intro can be played by switching between Am and G, just like Gotye's Somebody I Used to Know. I haven't looked at the song too closely, but I bet that it uses all 4 of the four chords: Am, C, F & G. Have fun, and practice doesn't make perfect, but sitting on your but doesn't make you better.

I want to post or [tab]
guest
You may want to rate the tab now too:
select rating
Please do not post tabs as comments. Select "correction" instead!