Oops, an error
Loading. Please wait.
We have an official Intro tab made by UG professional guitarists. Check out the tab »
×

Intro tab

version 1
version 1

Whole song

Interactive

by The xx
244,908 views 795 this week
6 commentsread comments
1 2 3 4 5
x 28
add to favorites
×
Save as Personal and add changes to this tab that will be seen only by you. Learn more ›
×
You can save this tab as Personal to edit and correct it or add notes. All changes will be seen only by you. Learn more »
launch autoscroll
font size
0
reset
how to read this tab
guitar tuner
backing track
0:00
0:00
edit
Autoscroll
slow
fast
+/-
esc
set tempo
stop
-------------------------------------------------------------------------------
                                 Intro - The xx
-------------------------------------------------------------------------------


[Intro Riff]

e|----------------------------------------------------------------------------|
B|----------------------------------------------------------------------------|
G|----------------------------------------------------------------------------|
D|-7-7--7--7-7--7--7-7--7--7-7--7--10-10--10--10-10--10--10-10--10--10-10--10-|
A|----------------------------------------------------------------------------|
E|----------------------------------------------------------------------------|

e|----------------------------------------------------------------------------|
B|----------------------------------------------------------------------------|
G|-7-7--7--7-7--7--7-7--7--7-7--7--9-9--9--9-9--9--7-7--7---------------------|
D|---------------------------------------------------------10-10--10----------|
A|----------------------------------------------------------------------------|
E|----------------------------------------------------------------------------|
 x2

 
[Alternative Riff]

e|----------------------------------------------------------------------------|
B|----------------------------------------------------------------------------|
G|-------------7-7---------------------7-7------------------------------------|
D|-7-7--10-10------10-10---7-7--10-10-------10-10-----------------------------|
A|----------------------------------------------------------------------------|
E|----------------------------------------------------------------------------|

e|----------------------------------------------------------------------------|
B|----------------------------------------------------------------------------|
G|-------------9-9---------7-7-----------9-9----------------------------------|
D|-7-7--10-10------10-10--------10-10-------10-10-----------------------------|
A|----------------------------------------------------------------------------|
E|----------------------------------------------------------------------------|
 x2


Repeat Intro riff


[Intro Riff]

e|----------------------------------------------------------------------------|
B|----------------------------------------------------------------------------|
G|----------------------------------------------------------------------------|
D|-7-7--7--7-7--7--7-7--7--7-7--7--10-10--10--10-10--10--10-10--10--10-10--10-|
A|----------------------------------------------------------------------------|
E|----------------------------------------------------------------------------|

e|----------------------------------------------------------------------------|
B|----------------------------------------------------------------------------|
G|-7-7--7--7-7--7--7-7--7--7-7--7--9-9--9--9-9--9--7-7--7---------------------|
D|---------------------------------------------------------10-10--10----------|
A|----------------------------------------------------------------------------|
E|----------------------------------------------------------------------------|


Repeat Alternative riff


[Alternative Riff]

e|----------------------------------------------------------------------------|
B|----------------------------------------------------------------------------|
G|-------------7-7---------------------7-7------------------------------------|
D|-7-7--10-10------10-10---7-7--10-10-------10-10-----------------------------|
A|----------------------------------------------------------------------------|
E|----------------------------------------------------------------------------|

e|----------------------------------------------------------------------------|
B|----------------------------------------------------------------------------|
G|-------------9-9---------7-7-----------9-9----------------------------------|
D|-7-7--10-10------10-10--------10-10-------10-10-----------------------------|
A|----------------------------------------------------------------------------|
E|----------------------------------------------------------------------------|
 x2


[Ends with]

e|----------------------------------------------------------------------------|
B|----------------------------------------------------------------------------|
G|----------2--5---7----9----5--------5-7---12--7-9--5------------------------|
D|-7--------------------------------------------------------------------------|
A|----------------------------------------------------------------------------|
E|----------------------------------------------------------------------------|

            
            
Suggest correction
Creating personal tab
Creating personal tab
You can edit any tab online and save it as your Personal.

You can edit, replace or remove any tab part or add personal notes – all changes will be seen only by you.

Personal tabs can be accessed anytime from any device, even offline.
Learn more »
comments
print report bad tab
6 comments total. Showing first comments. show 1 bad comment
0 reply
Frusciante19 20 Oct 02, 2010 12:00 PM

also nice

0 reply
hikerdood 10 Jan 28, 2013 04:56 AM

sorry take that back. this is actually really close.

guest
You may want to rate the tab now too:
select rating
Wanna post a correction for this tab? Suggest correction