Oops, an error
Loading. Please wait.

Intro Tab

version 2
version 2
133,836 views 375 this week
3 commentsread comments
1 2 3 4 5
excellent!
x 130
add to favorites
launch autoscroll
font size
0
reset
how to read this tab
guitar tuner
Tab Pro tools
  • play this tab
  • loop segment
  • change instrument
  • show fretboard
  • metronome
Autoscroll
slow
fast
+/-
esc
set tempo
stop
Contributor
Difficulty
|--------------------------------------------|
|----------------3(x12)-5(x6)-3-3-3----------|
|-2(x12)-5(x12)---------------------5-5-0-2--|
|--------------------------------------------|x2
|--------------------------------------------|
|--------------------------------------------|

|----------------------------------|
|---------3-3-------------3-3------|
|-2-2-5-5------5-5-2-5-5------5-5--|
|----------------------------------|
|----------------------------------|
|----------------------------------|

|-----------------------------------|
|---------5-5-----3-3-----5-5-------|
|-2-2-5-5-----5-5-----5-5-----5-5-2-|
|-----------------------------------|
|-----------------------------------|
|-----------------------------------|

Repeat all one more time and then the ending:

|-----------------------------------|
|-----------------------------------|
|-2---2/5--7-9-5---5/7--12--7/9--5--|
|-----------------------------------|
|-----------------------------------|
|-----------------------------------|
comments
print report bad tab
3 comments total.
0 reply
Frusciante19 wrote on September 19 2010, 12:59 pm

excellent tab... thanks

0 reply
Paramore11 wrote on November 3 2010, 10:32 pm

A small correction.

Instead of this:

|-----------------------------------|
|-----------------------------------|
|-2---2/5--7-9-5---5/7--12--7/9--5--|
|-----------------------------------|
|-----------------------------------|
|-----------------------------------|

I think it sounds more like this:

|-------------------------------------|
|-------------------------------------|
|-2---2/5--7-9-5---5/7--12--7/9/7--5--|
|-------------------------------------|
|-------------------------------------|
|-------------------------------------|

+3 reply
Stefan_P wrote on August 20 2013, 05:15 pm

I think the 2nd part sounds like this:

|-----------------------------------|
|---------3-3-------------3-3-------|
|-2-2-5-5-----5-5\2-2/5-5-----5-5\2-|
|-----------------------------------|
|-----------------------------------|
|-----------------------------------|

|-----------------------------------|
|---------5-5-----3-3-----5-5-------|
|-2-2-5-5-----5-5-----5-5-----5-5\2-|
|-----------------------------------|
|-----------------------------------|
|-----------------------------------|

|---------------------------------|
|-------3-3-------------3-3-------|
|-2/5-5-----5-5\2-2/5-5-----5-5\2-|
|---------------------------------|
|---------------------------------|
|---------------------------------|

|---------------------------------|
|---------5-5-----3-3-----5-5-----|
|-2-2-5-5-----5-5-----5-5-----5-5-|
|---------------------------------|
|---------------------------------|
|---------------------------------|

I want to post or [tab]
guest
You may want to rate the tab now too:
select rating
Please do not post tabs as comments. Select "correction" instead!