Oops, an error
Loading. Please wait.

Intro Tab

version 6
version 6

Whole song

Interactive

by The xx
676 views 6 this week
no commentswrite comment
1 2 3 4 5
2 more votes to show rating
add to favorites
launch autoscroll
font size
0
reset
how to read this tab
guitar tuner
backing track
0:00
0:00
×
Best way to learn
"Intro"
Autoscroll
slow
fast
+/-
esc
set tempo
stop
Difficulty
novice
-------------------------------------------------------------------------------
                             Intro - The XX
-------------------------------------------------------------------------------
Tabbed by: Nitin Paluri
E-mail: nitin4u@live.ca

Tuning: Standard

The other tabs here are accurate to how The XX plays the song, but I personally think that this sounds
much more eerie and mysterious. The hollow sound is quite interesting, I think. 

e|---------------------------------------------------------------------------|
B|---------------------------------------------------------------------------|
G|---------------------------------------------------------------------------|
D|---------------------------------------------------------------------------|
A|---12(x18)---15(x12)---17(x12)---19(x6)---17(x3)---15(x2)------------------|
E|------------------------------------------------------------15-------------|

e|---------------------------------------------------------------------------|
B|---------------------------------------------------------------------------|
G|---------------------------------------------------------------------------|
D|---------------------------------------------------------------------------|
A|---12(x12)---15(x12)---17(x12)---19(x6)---17(x3)---15(x2)------------------|
E|------------------------------------------------------------15-------------|

Incorporate slides based on your preference for the feel.

e|---------------------------------------------------------------------------|--
B|---------------------------------------------------------------------------|  |
G|---------------------------------------------------------------------------|  |
D|---7(x2)-/-10(x2)---12(x2)---10(x2)-\-7---10(x2)---12(x2)---10(x2)---------|  |
A|---------------------------------------------------------------------------|  |
E|---------------------------------------------------------------------------|  |
                                                                                | x2
e|---------------------------------------------------------------------------|  |
B|---------------------------------------------------------------------------|  |
G|---------------------------------------------------------------------------|  |
D|---7(x2)-/-10(x2)---14(x2)---10(x2)---12(x2)---10(x2)---14(x2)---10(x2)----|  |
A|---------------------------------------------------------------------------|  |
E|---------------------------------------------------------------------------|--

e|---------------------------------------------------------------------------|
B|---------------------------------------------------------------------------|
G|---------------------------------------------------------------------------|
D|---------------------------------------------------------------------------|
A|---12(x12)---15(x12)---17(x12)---19(x6)---17(x3)---15(x2)------------------|
E|------------------------------------------------------------15-------------|

Incorporate slides based on your preference for the feel.

e|---------------------------------------------------------------------------|--
B|---------------------------------------------------------------------------|  |
G|---------------------------------------------------------------------------|  |
D|---7(x2)-/-10(x2)---12(x2)---10(x2)-\-7---10(x2)---12(x2)---10(x2)---------|  |
A|---------------------------------------------------------------------------|  |
E|---------------------------------------------------------------------------|  |
                                                                                | x2
e|---------------------------------------------------------------------------|  |
B|---------------------------------------------------------------------------|  |
G|---------------------------------------------------------------------------|  |
D|---7(x2)-/-10(x2)---14(x2)---10(x2)---12(x2)---10(x2)---14(x2)---10(x2)----|  |
A|---------------------------------------------------------------------------|  |
E|---------------------------------------------------------------------------|--

e|---------------------------------------------------------------------------|
B|---------------------------------------------------------------------------|
G|---------------------------------------------------------------------------|
D|---7~~---7-/-10~~---12---14-\-10~~---10-/-12~~---17~~-\-12-/-14---10~~-----|
A|---------------------------------------------------------------------------|
E|---------------------------------------------------------------------------|

************************************

| /   Slide up
| \   Slide down
| h   Hammer-on
| p   Pull-off
| ~   Vibrato
| +   Harmonic
| x   Mute note
| b   Bend
| pb  Pre-bend
| br  Bend release
| pbr Pre-bend release
| brb Bend release bend

************************************
Suggest correction
Give kudos to tab author, rate the tab!
1 2 3 4 5
comments
print report bad tab
guest
You may want to rate the tab now too:
select rating
Wanna post a correction for this tab? Suggest correction