Oops, an error
Loading. Please wait.

Islands Tab

264,235 views 159 this week
6 commentsread comments
1 2 3 4 5
excellent!
x 96
add to favorites
launch autoscroll
font size
0
reset
how to read this tab
guitar tuner
Autoscroll
slow
fast
+/-
esc
set tempo
stop
Help us to improve Ultimate-Guitar.com Take our survey!
×
Contributor
Difficulty
patch17 3,091
novice
This song is brilliant, to get it sounding like the record
you need a bit of Reverb so it echoes :)


[Intro/Verse 1]

(Palm Muted)

e|----------------------------------------|
B|----------------------------------------|
G|---8---6-----4-----4---------------4----|
D|-6---4---2-2---2-2---2-----6---4-2------|
A|-----------------------4-4---2----------|
E|----------------------------------------|

e|------------------------------------------|
B|------------------------------------------|
G|---8---11-----6-----4----------------4----|
D|-6---9----4-4---2-2-------6---6---2-2-----|
A|----------------------4-4---4-------------|
E|------------------------------------------|


[Chorus] 

(Palm Muted)

e|--------------------------------------------------------------|
B|------------------------------4-4-4-4-4-4-4-4-4-4-4-4-4-4-4-4-|
G|1-1-1-1-1-1-1-1-1-1-1-1-1-1-1-4-4-4-4-4-4-4-4-4-4-4-4-4-4-4-4-|
D|2-2-2-2-2-2-2-2-2-2-2-2-2-2-2---------------------------------|
A|--------------------------------------------------------------|
E|--------------------------------------------------------------|

e|--------------------------------------------------|
B|--------------------------------------------------|
G|4-4-4-4-4-4-4-4-4-4-4-4-4-4-4-4-----------------4-|
D|6-6-6-6-6-6-6-6-6-6-6-6-6-6-6-6--6-6-6-6-6-6-6--6-|
A|---------------------------------4-4-4-4-4-4-4----|
E|--------------------------------------------------|


[Verse 2]

(Un-Muted)

e|--------------------------------------------------|
B|--------------------------------------------------|
G|--------------------------------------------------|
D|6-6/9-9/11-----------------6-6\4-4\2--------------|
A|--------------------------------------------------|
E|--------------------------------------------------|(x2)


[Chorus] (x2)


[Break]

(Un-Muted)

e|-------------------------------------|
B|----4-4-------4-4--------------------|
G|-1---4-4---1---4-4-----4-4------4-4--|
D|2-2-------2-2-------6-6-6-6--6-6-6-6-|
A|-------------------4-4------4-4------|
E|-------------------------------------|

e|---------------------------------------|
B|----4-4------4-4-----------------------|
G|-1---4-4--1---4-4-----4-4-4-4-4-4-4-4--|
D|2-2------2-2-------6-6-6-6-6-6-6-6-6-6-|
A|------------------4-4------------------|
E|---------------------------------------|


[Outro]

e|----------------------------------------------------------|
B|----------------------------------------------------------|
G|4-4-4-4-4-4-4-4-8-8-8-8-8-8-8-8-4-4-4-4-4-4-4-4-4-4-4-4-4-|
D|-6-6-6-6-6-6-6-6-9-9-9-9-9-9-9-9-6-6-6-6-6-6-6-6-6-6-6-6--|
A|----------------------------------------------------------|
E|----------------------------------------------------------|

************************************

| /  Slide up
| \  Slide down

************************************
comments
print report bad tab
6 comments total. Showing first comments.
+7 reply
evpaps 26 wrote on February 27 2010, 05:33 pm

Great tab, awesome song. Here is an alternate way to play the break. Just bar across 4 and use your 4th finger on 7:


e|-------------------------------------|
B|----4-4-------4-4--------------------|
G|-----4-4-------4-4-----4-4------4-4--|
D|-6---------6--------6-6-6-6--6-6-6-6-|
A|7-7-------7-7------4-4------4-4------|
E|-------------------------------------|

0 reply
evpaps 26 wrote on February 27 2010, 05:49 pm

And with the outro you can play it like this:


e|----------------------------------------------------------|
B|----------------4-4-4-4-4-4-4-4---------------------------|
G|4-4-4-4-4-4-4-4-4-4-4-4-4-4-4-4-4-4-4-4-4-4-4-4-4-4-4-4-4-|
D|-6-6-6-6-6-6-6-6---------------6-6-6-6-6-6-6-6-6-6-6-6-6--|
A|----------------------------------------------------------|
E|----------------------------------------------------------|

+5 reply
evpaps 26 wrote on February 27 2010, 06:03 pm

Whoops, I screwed up the spacing there. It should be like this:


e|----------------------------------------------------------|
B|----------------4-4-4-4-4-4-4-4---------------------------|
G|4-4-4-4-4-4-4-4--4-4-4-4-4-4-4-44-4-4-4-4-4-4-4-4-4-4-4-4-|
D|-6-6-6-6-6-6-6-6-----------------6-6-6-6-6-6-6-6-6-6-6-6--|
A|----------------------------------------------------------|
E|----------------------------------------------------------|

You get the idea

I want to post or [tab]
guest
You may want to rate the tab now too:
select rating
Please do not post tabs as comments. Select "correction" instead!