Oops, an error
Loading. Please wait.

Islands Bass Tab

version 2
version 2

Whole song

Interactive

1,140 views 1 this week
1 commentread comment
1 2 3 4 5
please rate
add to favorites
launch autoscroll
font size
0
reset
guitar tuner
Autoscroll
slow
fast
+/-
esc
set tempo
stop
Help us to improve Ultimate-Guitar.com Take our survey!
×
Author
Difficulty
novice
                                         Islands 
                                        By: The XX
G|---------------------------------------------------------|--|
D|-------------6------4-------9----------------------------|  |
A|-----------4---0--2---2/7--------------------------------|  |
E|------------------------------0-0-0-0--------------------|  |
                                                             x3
G|---------------------------------------------------------|  |
D|-------------6------6-------9----------------------------|  |
A|-----------4---0--4----4/7-------------------------------|  |
E|---------------------------------------------------------|--|


Chorus
G|----------------------------------------------------------------------------------|
D|----------------------------------------------------------------------------------|
A|-7-7-7-7-7-7-7-7-7-7-7-7-7-7-7-7//11-11-11-11-11-11-11-11-11-11-11-11-11-11-11-11-|
E|----------------------------------------------------------------------------------|

G|----------------------------------------------------------------------------------|
D|----------------------------------------------------------------------------------|
A|-2-2-2-2-2-2-2-2-2-2-2-2-2-2-2-2--0-0-0-0-0-0-0-0--2------------------------------|
E|----------------------------------------------------------------------------------|

G|---------------------------------------------------------|--| 
D|---------------------------------------------------------|  |
A|---------------11---11\9---9\7---------------------------|  |   
E|---------------------------------------------------------|  |
                                                              | 
G|---------------------------------------------------------|  |
D|---------------6------4------9---------------------------|  |
A|-----------4-4---0--2---2\7------------------------------|  |     
E|---------------------------------------------------------|  |
                                                             x2 
G|---------------------------------------------------------|  |
D|---------------5--5/9---9/11-----------------------------|  |
A|---------------------------------------------------------|  |     
E|---------------------------------------------------------|  |
                                                              |
G|---------------------------------------------------------|  |
D|---------------6------4------9---------------------------|  |
A|-----------4-4---0--2---2\7------------------------------|  |    
E|---------------------------------------------------------|--|

G|----------------------------------------------------------------------------------|--|
D|----------------------------------------------------------------------------------|  |
A|-7-7-7-7-7-7-7-7-7-7-7-7-7-7-7-7//11-11-11-11-11-11-11-11-11-11-11-11-11-11-11-11-|  |
E|----------------------------------------------------------------------------------|  |
                                                                                      x2
G|----------------------------------------------------------------------------------|  |
D|----------------------------------------------------------------------------------|  |
A|-2-2-2-2-2-2-2-2-2-2-2-2-2-2-2-2--0-0-0-0-0-0-0-0--2------------------------------|  |
E|----------------------------------------------------------------------------------|--|

Break

G|----------------------------------------------------------------------------------|
D|----------------------------------------------------------------------------------|
A|-7-7-7-7-7-7-7-7-7-7-7-7-7-7-7-7//11-11-11-11-11-11-11-11-11-11-11-11-11-11-11-11-|
E|----------------------------------------------------------------------------------|

G|----------------------------------------------------------------------------------|
D|----------------------------------------------------------------------------------|
A|-2-2-2-2-2-2-2-2-2-2-2-2-2-2-2-2--0-0-0-0-0-0-0-0--2------------------------------|
E|----------------------------------------------------------------------------------|
Suggest correction
What's this?
You can suggest a correction to this tab. Community and Mods will review your correction and vote to approve or reject it.
comments
We did not receive enough feedback on this tab! Please rate:
print report bad tab
1 2 3 4 5
1 comment total.
0 reply
aidan.zpeel 503 wrote on June 30 2014, 07:50 am

Clearly wrong.

guest
You may want to rate the tab now too:
select rating
Please do not post tabs as comments. Select "correction" instead!