Oops, an error
Loading. Please wait.

Night Time Tab

version 2
version 2

Whole song

48,023 views 48 this week
4 commentsread comments
1 2 3 4 5
x 31
add to favorites
launch autoscroll
font size
0
reset
how to read this tab
guitar tuner
Autoscroll
slow
fast
+/-
esc
set tempo
stop
Help us to improve Ultimate-Guitar.com Take our survey!
×
Author
Difficulty
novice
Fantastic song by a fantastic band, this should be all correct
During most of the song the Second Guitar harmonizes 
underneath the 1st one, and can be hard to hear


[Intro]

e|------------------------------------------------------------|
B|------------------------------------------------------------|
G|11~--9~-----------------------------11~---11/13~---13/14~---|
D|---------11/12~---11/12\11-9-7~-----------------------------|
A|------------------------------------------------------------|
E|------------------------------------------------------------|


[Verse 1]

Guitar 1
e|------------------------|
B|------------------------|
G|11~---9~----------------|
D|-----------11~----12~---|
A|------------------------|
E|------------------------|

Guitar 2
e|--------------------|
B|--------------------|
G|--------------------|
D|9~---7~-------------|
A|----------9~---9~---|
E|--------------------|


[Break]

Guitar 1
e|------------------------------------------------|
B|----------------/12-12--------------------------|
G|11~-/14-13-------------14-----/13-14----/14-13~-|
D|-----------14~------------11~--------11~--------|
A|------------------------------------------------|
E|------------------------------------------------|

e|----------------------------------------|
B|---------------/12-12-------------------|
G|11~-/14-13------------14-----13-14-13~~-|
D|-----------14~-----------11~------------|
A|----------------------------------------|
E|----------------------------------------|

Guitar 2
e|--------------------------------|
B|--------------------------------|
G|--------------------------------|
D|9~---7~------------9~---7~------|
A|----------9~---9~-----------9~~-|
E|--------------------------------|


[Verse 2]

Guitar 1
e|-----|
B|-----|
G|11~~-|
D|-----|
A|-----|
E|-----|(x5)

After those 5 notes, wait until Guitar 2 plays riff once more then
join back in with this

e|---------------------------------------------|
B|---------------------------------------------|
G|11-11-11-11/13-13-13-13/14-14-14-14/16-14-13-|
D|---------------------------------------------|
A|---------------------------------------------|
E|---------------------------------------------|

e|-----------------------------|
B|-----------------------------|
G|11-11-11-11/13-13-13-13/14~~-|
D|-----------------------------|
A|-----------------------------|
E|-----------------------------|

Guitar 2
e|------------------------------|
B|7-7-7-9-9-9-10-10-10-12-12-10-|
G|------------------------------|
D|------------------------------|
A|------------------------------|
E|------------------------------|(x7)

e|-----------------|
B|7-7-7-9-9-9-10~~-|
G|-----------------|
D|-----------------|
A|-----------------|
E|-----------------|


[Chorus]

Guitar 1 - the 14 x9 is not a mistake, that is the right number of notes :)
e|----------------------------------------------------------------|
B|----------------------------------------------------------------|
G|11~---9~------------------11(x8)-/13(x8)-/14(x9)-16-16-16-14-13-|
D|-----------11~---11/12~-----------------------------------------|
A|----------------------------------------------------------------|
E|----------------------------------------------------------------|

Guitar 2
e|----------------------------------------|
B|----------------------------------------|
G|----------------------------------------|
D|9~---7~-------------9~---7~-------------|
A|----------9~---9~-------------9~---9~---|
E|----------------------------------------|


[Verse 3]

Guitar 1 - Sit out for whole verse but come in last 2 times through with this
e|---------------------------------------------|
B|---------------------------------------------|
G|11-11-11-11/13-13-13-13/14-14-14-14/16-14-13-|
D|---------------------------------------------|
A|---------------------------------------------|
E|---------------------------------------------|

e|-----------------------------|
B|-----------------------------|
G|11-11-11-11/13-13-13-13/14~~-|
D|-----------------------------|
A|-----------------------------|
E|-----------------------------|

Guitar 2
e|------------------------------|
B|7-7-7-9-9-9-10-10-10-12-12-10-|
G|------------------------------|
D|------------------------------|
A|------------------------------|
E|------------------------------|(x4) Palm Muted (x3) Un Muted

e|-----------------|
B|7-7-7-9-9-9-10~~-|
G|-----------------|
D|-----------------|
A|-----------------|
E|-----------------|Last Time

[Chorus]

[Break]

[End Part]

Guitar 1 only
e|-----------------|
B|-----------------|
G|14-13-11-10-11~~-|
D|-----------------|
A|-----------------|
E|-----------------|



************************************

| /  Slide up
| ~  Vibrato
| \  Slide down

************************************
Suggest correction
comments
print report bad tab
4 comments total. Showing first comments.
0 reply
Zebadee 40 Nov 05, 2010 08:18 PM

Kudos on the tab, for some reason I love playing this to warm up on acoustic... 5*

+2 reply
rightiousdookie 10 Sep 04, 2012 03:05 PM

Hey awesome tab man, much appreciated. one thing i had a question about. after you play the chorus in verse two, it sounds like there should be another break. is this just the sound of guitar 2 or is there a break in there? because i separated the guitars and was playing G1 with the song and it threw it off. i might be wrong. can you take a look at it? so myself, and future people looking at this know to include another break or not. Thanks!

0 reply
siminteus 266 Oct 16, 2014 10:16 AM

Amazing Tab! But I believe this is the Break Part(After Both Chorus)

e|-----------------------------------------------------|
B|-----------------------------------------------------|
G|11-11-11-/-14-14-14--13-13--9-9-9-/-16-16-16--14-14--|
D|-----------------------------------------------------|
A|-----------------------------------------------------|
E|-----------------------------------------------------|

e|------------------------------------------------------|
B|------------------------------------------------------|
G|----------13-13-13--14-14-------------14-14-14--13-13-|
D|-11-11-11------------------11-11-11-------------------|
A|------------------------------------------------------|
E|------------------------------------------------------|

guest
You may want to rate the tab now too:
select rating
Wanna post a correction for this tab? Suggest correction