Oops, an error
Loading. Please wait.

Replica chords

by The xx
3,034 views 81 this week
2 commentsread comments
1 2 3 4 5
x 7
add to favorites
×
Save as Personal and add changes to this tab that will be seen only by you. Learn more ›
×
You can save this tab as Personal to edit and correct it or add notes. All changes will be seen only by you. Learn more »
launch autoscroll
font size
0
reset
transpose
0
reset
simplify chords
display chords
guitar tuner
edit
Autoscroll
slow
fast
+/-
esc
set tempo
stop
Strumming
There is no strumming pattern for this song yet. and get +5 IQ
Background riff that keeps repeting until the song's end:


E|---------------------------|
B|---------------------------|
G|---------------------------|
D|--------6---8---6----------|
A|--8-6-8---8---8------------|
E|---------------------------|


[Intro] 
D9 C9

E|-----------------------------------|
B|-----------------------------------|
G|-----------------------------------|
D|-------10~--10-8--6-6-8-10~--8-6---|
A|--8-6----------------------------8-|
E|-----------------------------------|


[Verse 1]
D
Same right, same wrong
                              C9
Only difference is that I'm the one
D
Second time around
                                 C9
Feels like the song's already been sung


[Pre-Chorus]
      G
Mirroring situations, accurate imitation
     C9
Do I watch and repeat?
       G           
And as if I tried to, I turned out just like you
      C9
Do we watch and repeat?


[Chorus]
          D9                    C9
They all say I will become a replica
         D9               C9
Your mistakes were only chemical


[Bridge] 
G C9

E|----------------------|---------------------|-----------------------------|-----------------------------|
B|----------------------|---------------------|-----------------------------|-----------------------------|
G|----------------------|---------------------|-----------------------------|-----------------------------|
D|-8-8-8-8-8-8-8-8-6-6--|-8-8-8-8-8-8-8-8-6-6-|-10-10-10-10-10-10-10-10-6-6-|-10-10-10-10-10-10-10-10-6-6-|
A|----------------------|---------------------|-----------------------------|-----------------------------|
E|----------------------|---------------------|-----------------------------|-----------------------------|


[Verse 2]
Em7
25 and you're just like me
     G                      C9
Is it in our nature to be stuck on repeat?
  Em7
Another encore to an aftershow
       G                           C9
Do I chase the night or does the night chase me?


[Pre-Chorus]
      G
Mirroring situations, accurate imitation
     C9
Do I watch and repeat?
       G           
And as if I tried to, I turned out just like you
      C9
Do we watch and repeat?


[Chorus]
          D9                    C9
They all say I will become a replica
         D9               C9
Your mistakes were only chemical


[Bridge]
       G                           C9
Do I chase the night or does the night chase me?
       G                           C9
Do I chase the night or does the night chase me?


[Chorus]
          D9                    C9
They all say I will become a replica
         D9               C9
Your mistakes were only chemical

            
            
Suggest correction
Creating personal tab
Creating personal tab
You can edit any tab online and save it as your Personal.

You can edit, replace or remove any tab part or add personal notes – all changes will be seen only by you.

Personal tabs can be accessed anytime from any device, even offline.
Learn more »
comments
print report bad tab
2 comments total.
0 reply
taylor.goulart. 182 Jan 29, 2017 05:39 PM

Pretty sure it's D - C instead of D9 - C9

0 reply
angeldavid218 12 Feb 18, 2017 07:11 PM

Background riff modified

E|---------------------------|
B|---------------------------|
G|---------------------------|
D|--------6---8---6---------|
A|--8-6-8---8----8--8-------|
E|---------------------------|

guest
You may want to rate the tab now too:
select rating
Wanna post a correction for this tab? Suggest correction