Oops, an error
Loading. Please wait.

Shelter Bass Tab

7,020 views 48 this week
2 commentsread comments
1 2 3 4 5
worth learning
x 4
add to favorites
launch autoscroll
font size
0
reset
guitar tuner
Tab Pro tools
  • play this tab
  • loop segment
  • change instrument
  • show fretboard
  • metronome
×
Best way to learn
"Shelter"
Autoscroll
slow
fast
+/-
esc
set tempo
stop
Contributor
Difficulty
novice
Verse:
"I find shelter..."
G------------------------------------------------------------------------|
D------------------------------------------------------------------------|
A-----3---3-3--3-3-----3---3-3---3--3-3--3---3---3-3--3-3----------------|
E-------------------------------------------------------------5--5-5--3--|

Chorus:
"Maybe I had said..."
G----------------------------------|
D----------------------------------|
A--8}x16--5}x16--0}x16--3}x16------|
E----------------------------------|

Guitar Solo:
G-----------------------------------------------------------------------|
D-----------------------------------------------------------------------|
A-------------------3---3-3---3--3-3--3-----5---5-5--5-5----------------|
E--5---5-5--5-5----------------------------------------------5--5-5--3--|

Verse:
"Could I be..."
G------------------------------------------------------------------------|
D------------------------------------------------------------------------|
A-----3---3-3--3-3-----3---3-3---3--3-3--3---3---3-3--3-3----------------|
E-------------------------------------------------------------5--5-5--3--|

From the end of the verse to Chorus:
"So you can see the way I feel it too."
G----------------------------------|
D----------------------------------|
A--8}x16--5}x16--0}x16--3}x16------|
E----------------------------------|

Guitar Solo:
G-----------------------------------------------------------------------|
D-----------------------------------------------------------------------|
A-------------------3---3-3---3--3-3--3-----5---5-5--5-5----------------|
E--5---5-5--5-5----------------------------------------------5--5-5--3--|

Chorus(Even though the guitar solo plays again the bass plays the chorus again):
"Maybe I had said..."
G----------------------------------|
D----------------------------------|
A--8}x16--5}x16--0}x16--3}x16------|
E----------------------------------|
comments
print report bad tab
2 comments total.
0 reply
EmoPikaPunk wrote on June 20 2013, 10:40 am

Great tab! I love this song, going to use it for a performance now!

0 reply
kk.espada wrote on December 15 2014, 01:21 pm

Nice! thanks for the tab but I think the Verse should be

G------------------------------------------------------------|
D------------------------------------------------------------|
A---------------------------------------------12--12--12/10--|
E--8--88--88---8--88--7--8-8/10--10-10--10-10----------------|

and the Guitar solo part should be
G---------------------------------------------------------------------|
D---------------------------------------------------------------------|
A---------------------------------------------------------------------|
E---10--10-10--10-10---8--8-8--7--8-8/10---10-10--10-10---5-5--5\3----|

I want to post or [tab]
guest
You may want to rate the tab now too:
select rating
Please do not post tabs as comments. Select "correction" instead!