Oops, an error
Loading. Please wait.

Shelter Tab

version 1
version 1

Whole song

  • They lack one part of the song. They have one note... Show more
56,567 views 36 this week
1 commentread comment
1 2 3 4 5
excellent!
x 21
add to favorites
launch autoscroll
font size
0
reset
how to read this tab
guitar tuner
Autoscroll
slow
fast
+/-
esc
set tempo
stop
Help us to improve Ultimate-Guitar.com Take our survey!
×
Author
Difficulty
novice
-------------------------------------------------------------------------------
                             Shelter - The Xx
-------------------------------------------------------------------------------
Tabbed by: jellaa
Email: angeladarnall@gmail.com

Tuning: standard

(First verse) I find shelter...

e|---------------------------------------------------------------------------|
B|---------------------------------------------------------------------------|
G|---------------------------------------------------------------------------|
D|-10----14(x6)--------------------------------------------------------------|
A|---------------------------------------------------------------------------|
E|---------------------------------------------------------------------------|


(chorus- all palm muted) Maybe I had said... 

e|---------------------------------------------------------------------------|
B|---------------------------------------------------------------------------|
G|---------------------------------------------------------------------------|
D|--7777777777777777/3333333333333333/2222222222222222/3333333333333333-(x2)-|
A|--8888888888888888/5555555555555555/0000000000000000/3333333333333333-(x2)-|
E|---------------------------------------------------------------------------|



e|---------------------------------------------------------------------------|
B|---------------------------------------------------------------------------|
G|-10-10-9-------------10-10-9-------------------10-10-9---------------------|
D|---------10-7-77-77----------10-7/10-1010-1010---------10-10/17-1717-1717--|
A|---------------------------------------------------------------------------|
E|---------------------------------------------------------------------------|

e|---------------------------------------------------------------------------|
B|---------------------------------------------------------------------------|
G|---1010-9------------------------------------------------------------------|
D|----------10-10-10-9-------------------------------------------------------|
A|---------------------------------------------------------------------------|
E|---------------------------------------------------------------------------|



(Second verse) Could I be...

e|---------------------------------------------------------------------------|
B|---------------------------------------------------------------------------|
G|---------------------------------------------------------------------------|
D|-10----14(x6)--------------------------------------------------------------|
A|---------------------------------------------------------------------------|
E|---------------------------------------------------------------------------|


(all palm muted) And I'll cross oceans...


e|---------------------------------------------------------------------------|
B|---------------------------------------------------------------------------|
G|---------------------------------------------------------------------------|
D|---------------------------------------------------------------------------|
A|-----12(x16)-8(x16)-5(x16)-3(x16)------------------------------------------|
E|---------------------------------------------------------------------------|

(Chorus) Maybe I had said...

e|---------------------------------------------------------------------------|
B|---------------------------------------------------------------------------|
G|---------------------------------------------------------------------------|
D|--7777777777777777/3333333333333333/2222222222222222/3333333333333333-(x2)-|
A|--8888888888888888/5555555555555555/0000000000000000/3333333333333333-(x2)-|
E|---------------------------------------------------------------------------|


e|---------------------------------------------------------------------------|
B|---------------------------------------------------------------------------|
G|-10-10-9-------------10-10-9-------------------10-10-9---------------------|
D|---------10-7-77-77----------10-7/10-1010-1010---------10-10/17-1717-1717--|
A|---------------------------------------------------------------------------|
E|---------------------------------------------------------------------------|

e|---------------------------------------------------------------------------|
B|---------------------------------------------------------------------------|
G|---1010-9------------------------------------------------------------------|
D|----------10-10-10-9-------------------------------------------------------|
A|---------------------------------------------------------------------------|
E|---------------------------------------------------------------------------|


************************************

| /   slide up
| \   slide down
| h   hammer-on
| p   pull-off
| ~   vibrato
| +   harmonic
| x   Mute note
| b   Bend
| pb  Pre-bend
| br  Bend release
| pbr Pre-bend release
| brb Bend release bend

************************************
Suggest correction
What's this?
You can suggest a correction to this tab. Community and Mods will review your correction and vote to approve or reject it.
comments
print report bad tab
1 comment total.
+1 reply
kk.espada 398 wrote on December 15 2014, 10:08 am

Good job! though I'd like to submit the correct tab for some parts of the song:

Verse:
e|---------------------------------------------------------------|
B|---------------------------------------------------------------|
G|---------------------------------------------------------------|
D|--14--------14-------------------------------------------------| (x4)
A|--15--------12-------------------------------------------------|
E|---------------------------------------------------------------|

Chorus:
e|---------------------------------------------------------------|
B|---------------------------------------------------------------|
G|---------------------------------------------------------------|
D|--7(x16)-------3(x16)-------3(x16)------3(x16)-----------------|
A|--8(x16)-------5(x16)-------0(x16)------3(x16)-----------------|
E|---------------------------------------------------------------|

And I'll cross the oceans...
e|---------------------------------------------------------------|
B|---------------------------------------------------------------|
G|---------------------------------------------------------------|
D|---12(x16)----8(x16)-----5(x16)-----0(x16)---------------------|
A|---------------------------------------------------------------|
E|---------------------------------------------------------------|

guest
You may want to rate the tab now too:
select rating
Please do not post tabs as comments. Select "correction" instead!