Oops, an error
Loading. Please wait.

Together Tab

version 2
version 2

Whole song

704 views 1 this week
no commentswrite comment
1 2 3 4 5
3 more votes to show rating
add to favorites
launch autoscroll
font size
0
reset
how to read this tab
guitar tuner
Autoscroll
slow
fast
+/-
esc
set tempo
stop
Help us to improve Ultimate-Guitar.com Take our survey!
×
Author
Difficulty
novice
The XX - Together
Tabbed by Savely Fufaev.
Email: fufaev.s@icloud.com


Tuning: Standart (E B G D A E)


Intro:
e|---------------------|
B|---------------------|
G|---------------------|
D|---11pm (16 times)---|
A|---------------------|
E|---------------------|

e|------------------------------------------|
B|------------------------------------------|
G|------------------------------------------|
D|---14pm (16x)---13pm (16x)---14pm (16x)---|
A|------------------------------------------|
E|------------------------------------------|

e|-------------------------|
B|-------------------------|
G|-------------------------|
D|---18pm (2x)---18 (2x)---| < 4 times.   !!   At least the whole verse and intro actually plays like this   !!
A|-------------------------|              !!  2 times you hit the string lightly, then 2 times hit it harder !!
E|-------------------------|              !!   but only in this part you have to use not palm muted note.    !!
                                          !!          Thats why in other parts I just wrote "pm".            !!


Verse:
e|---------------------------------------------------|
B|---------------------------------------------------|
G|---------------------------------------------------|
D|---11pm (14x)--11 (2x)---13pm (16x)---14pm (16x)---|
A|---------------------------------------------------|
E|---------------------------------------------------|

e|-------------------------|
B|-------------------------|
G|-------------------------|
D|---18pm (2x)---18 (2x)---| < 8 times.
A|-------------------------|
E|-------------------------|

e|-------------------------|
B|-------------------------|
G|-------------------------|
D|---19pm (2x)---19 (2x)---| < 4 times.
A|-------------------------|
E|-------------------------|

then slide to:

e|-------------------------|
B|-------------------------|
G|-------------------------|
D|---21pm (2x)---21 (2x)---| < 2 times.
A|-------------------------|
E|-------------------------|

e|-------------------------|
B|-------------------------|
G|-------------------------|
D|---18pm (2x)---18 (2x)---| < 2 times.
A|-------------------------|
E|-------------------------|

e|---------------------|
B|---------------------|
G|---------------------|
D|---13pm (16 times)---|
A|---------------------|
E|---------------------|


After verse:
e|--------------------------------------------|
B|--------------------------------------------|
G|--------------------------------------------|
D|---11----11--13--13---13--14--14--14---18---| < all palm muted but hit the string really hard this time.
A|--------------------------------------------|
E|--------------------------------------------|

e|------------------------------------------------|
B|------------------------------------------------|
G|------------------------------------------------|
D|---11----11--13--13---13--14--14--14---19--18---| < all palm muted but hit the string really hard this time.
A|------------------------------------------------|
E|------------------------------------------------|

e|-------------------------------------------|
B|-------------------------------------------|
G|-------------------------------------------|
D|---21---21--19--19---19--18--18---18--13---| < all palm muted but hit the string really hard this time.
A|-------------------------------------------|
E|-------------------------------------------|

e|-----------------------------|
B|-----------------------------|
G|-----------------------------|
D|---11---11--13--16--13--11---| < all palm muted but hit the string really hard this time.
A|-----------------------------|
E|-----------------------------|


2nd verse:

Start with this:
e|------------------------------------------|
B|------------------------------------------|
G|------------------------------------------|
D|---11pm (16x)---13pm (16x)---14pm (16x)---|
A|------------------------------------------|
E|------------------------------------------|
And then just repeat the rest of the first verse.

Seems like here we have some guitar too but its just a keyboards.

After that we'll have a familiar part but with some slides and not palm muted.
e|-------------------------------------------------|
B|-------------------------------------------------|
G|-------------------------------------------------|
D|---11---11--11/13--13---13--13/14--14---14--18---|
A|-------------------------------------------------|
E|-------------------------------------------------|

e|-------------------------------------------------|
B|-------------------------------------------------|
G|-------------------------------------------------|
D|---11---11--11/13--13---13--14--14---14--19-18---|
A|-------------------------------------------------|
E|-------------------------------------------------|

e|------------------------------------------|
B|------------------------------------------|
G|------------------------------------------|
D|---21---21--19--19---19--18--18---18-13---|
A|------------------------------------------|
E|------------------------------------------|

e|--------------------------------|
B|--------------------------------|
G|--------------------------------|
D|---11---11--11/13---16--13\11---|
A|--------------------------------|
E|--------------------------------|



 pm - palm muted
  / - slide up
  \ - slide down
Suggest correction
Give kudos to tab author, rate the tab!
1 2 3 4 5
comments
print report bad tab
guest
You may want to rate the tab now too:
select rating
Wanna post a correction for this tab? Suggest correction