Oops, an error
Loading. Please wait.

Try Bass Tab

733 views 3 this week
no commentswrite comment
1 2 3 4 5
please rate
add to favorites
launch autoscroll
font size
0
reset
guitar tuner
Autoscroll
slow
fast
+/-
esc
set tempo
stop
Help us to improve Ultimate-Guitar.com Take our survey!
×
Author
Difficulty
novice
intro/verse

G|---------------------------------------------------------------|
D|--------12---------------12----------14-------------------12---|
A|-12---9---------14----10----------7-----12-------5---12--------|
E|---------------------------------------------------------------|

break

G|---------------------------------------------------------------|
D|--------12---------------12----------14-------------------12---|
A|-12---9---------14----10----------7-----12-------5---12--------|
E|------------------------------------------------------------|x2| 

outro variation

G|---------------------------------------------------------------|
D|--------12---------------12---------14----14-------------------|
A|-12---9---------14---10----------7-----12-------5--------------|
E|-----------10----------------10--------------------------------|
Suggest correction
Give kudos to tab author, rate the tab!
1 2 3 4 5
comments
print report bad tab
guest
You may want to rate the tab now too:
select rating
Please do not post tabs as comments. Select "correction" instead!