Oops, an error
Loading. Please wait.

Vcr Bass Tab

version 1
version 1

Whole song

Interactive

16,282 views 12 this week
no commentswrite comment
1 2 3 4 5
excellent!
x 8
add to favorites
launch autoscroll
font size
0
reset
guitar tuner
Tab Pro tools
  • play this tab
  • loop segment
  • change instrument
  • show fretboard
  • metronome
×
Best way to learn
"Vcr"
Autoscroll
slow
fast
+/-
esc
set tempo
stop
Contributor
Difficulty
Artist, The XX
Song, Vcr
Album, XX

Standard tuning, EADG

Legend:
/ SLide up
\ Slide down
~ let ring

Intro

G|----------------|
D|----------------|
A|----------------|  X 3
E|----------------|

G|------------------|
D|------------------|
A|-------------8----|
E|---------------8\-|

G|--------------------------------|
D|--------------------------------|
A|333333333333333/8888888888888888|\
E|--------------------------------|

G|---------------------------------|
D|---------------------------------|
A|333333333333333/8888888888888~---|
E|---------------------------------|

First verse

G|--------------------------------|
D|--------------------------------|
A|333333333333333/8888888888888888|\
E|--------------------------------|

G|---------------------------------|
D|---------------------------------|
A|333333333333333/8888888888888~---|
E|---------------------------------|

G|--------------------------------|
D|--------------------------------|
A|333333333333333/8888888888888888|\
E|--------------------------------|

G|----------------------------------|
D|----------------------------------|
A|333333333333333/8888888888888~-8--|
E|---------------------------------8|

Chorus

G|--------------------------------------|
D|--------------------------------------|
A|3-3-3-3-3-3-3-3/8-8-8-8-8-8-8-8\  X 2-|
E|--------------------------------------|

G|----------------------------------|
D|----------------------------------|
A|3---333--3--3-33/8---888--8-8-88\-|
E|----------------------------------|

G|--------------------------------|
D|--------------------------------|
A|333333333333333/8888888888888~--|
E|--------------------------------|

Second verse

G|--------------------------------|
D|--------------------------------|
A|333333333333333/8888888888888888| X 2
E|--------------------------------|

Chorus

G|----------------------------------|
D|----------------------------------|
A|3---333--3--3-33/8---888--8-8-88\-|
E|----------------------------------|

G|--------------------------------|
D|--------------------------------|
A|333333333333333/8888888888888~--|
E|--------------------------------|

G|--------------------------------|
D|--------------------------------|
A|333333333333333/8888888888888888| X 2
E|--------------------------------|

G|----------------------------------|
D|----------------------------------|
A|3---333--3--3-33/8---888--8-8-88\-|
E|----------------------------------|

G|--|
D|--|
A|--|
E|8~|

Easy enough
comments
print report bad tab
I want to post or [tab]
guest
You may want to rate the tab now too:
select rating
Please do not post tabs as comments. Select "correction" instead!