Oops, an error
Loading. Please wait.

For Your Love tab

version 4
version 4

Whole song

Interactive

155 views 1 this week
no commentswrite comment
1 2 3 4 5
3 more votes to show rating
add to favorites
×
Save as Personal and add changes to this tab that will be seen only by you. Learn more ›
×
You can save this tab as Personal to edit and correct it or add notes. All changes will be seen only by you. Learn more »
launch autoscroll
font size
0
reset
how to read this tab
guitar tuner
backing track
0:00
0:00
edit
Autoscroll
slow
fast
+/-
esc
set tempo
stop
Author
Difficulty
FOR YOUR LOVE

As recorded by The Yardbirds
(From the 1965 Album FOR YOUR LOVE)

Words and Music by Graham Gouldmann

Transcribed by Slowhand


Gtr I (E A D G B E) - 'Brian Auger - Harpsichord'
Gtr II (E A D G B E) - 'Eric Clapton - Electric Guitar'
Gtr III (E A D G B E) - 'Chris Dreja - Electric Guitar'


   Intro & Interlude
    Q=170                           1.           2.
    $
    Em         G          A          Am           Am
   4/4
    Gtrs I, II (Harpsichord & Clean El. Gtr.)
    W          W          W          W            W
||--0--------|-3--------|-5--------|-5---------||-5----|
||o-0--------|-3--------|-5--------|-5--------o||-5----|
||--0--------|-4--------|-6--------|-5---------||-5----|
||--2--------|-5--------|-7--------|-7---------||-7----|
||o----------|----------|----------|----------o||------|
||-----------|----------|----------|-----------||------|
|
|   Gtr III (Clean El. Gtr.)
|   W          W          W          W            W
||--0--------|-3--------|-5--------|-5---------||-5----|
||o-0--------|-3--------|-5--------|-5--------o||-5----|
||--0--------|-4--------|-6--------|-5---------||-5----|
||--2--------|-5--------|-7--------|-7---------||-7----|
||o-2--------|-5--------|-7--------|-7--------o||-7----|
||--0--------|-3--------|-5--------|-5---------||-5----|


    Em                 G
    W                  W
||--0----------------|-3----------------|
||o-0----------------|-3----------------|
||--0----------------|-4----------------|
||--2----------------|-5----------------|
||o------------------|------------------|
||-------------------|------------------|
|
|   Q  E E +E  E E E   Q  E E +E  E E E
||--0--0-0-(0)-0-0---|-3--3-3-(3)-3-3---|
||o-0--0-0-(0)-0-0---|-3--3-3-(3)-3-3---|
||--0--0-0-(0)-0-0---|-4--4-4-(4)-4-4---|
||--2--2-2-(2)-2-2---|-5--5-5-(5)-5-5---|
||o-2--2-2-(2)-2-2---|-5--5-5-(5)-5-5---|
||--0--0-0-(0)-0-0---|-3--3-3-(3)-3-3---|


  A                  Am
  W                  W
|-5----------------|-5------------------||
|-5----------------|-5-----------------o||
|-6----------------|-5------------------||
|-7----------------|-7------------------||
|------------------|-------------------o||
|------------------|--------------------||
|
| Q  E E +E  E E E   Q  E E +E  E E E
|-5--5-5-(5)-5-5---|-5--5-5-(5)-5-5-----||
|-5--5-5-(5)-5-5---|-5--5-5-(5)-5-5----o||
|-6--6-6-(6)-6-6---|-5--5-5-(5)-5-5-----||
|-7--7-7-(7)-7-7---|-7--7-7-(7)-7-7-----||
|-7--7-7-(7)-7-7---|-7--7-7-(7)-7-7----o||
|-5--5-5-(5)-5-5---|-5--5-5-(5)-5-5-----||


   1st & 2nd Verses
    Em                 G
    W                  W
||--0----------------|-3----------------|
||o-0----------------|-3----------------|
||--0----------------|-4----------------|
||--2----------------|-5----------------|
||o------------------|------------------|
||-------------------|------------------|
|
|   Q  E E +E  E E E   Q  E E +E  E E E
||--0--0-0-(0)-0-0---|-3--3-3-(3)-3-3---|
||o-0--0-0-(0)-0-0---|-3--3-3-(3)-3-3---|
||--0--0-0-(0)-0-0---|-4--4-4-(4)-4-4---|
||--2--2-2-(2)-2-2---|-5--5-5-(5)-5-5---|
||o-2--2-2-(2)-2-2---|-5--5-5-(5)-5-5---|
||--0--0-0-(0)-0-0---|-3--3-3-(3)-3-3---|


  A                  Am
  W                  W                  3x
|-5----------------|-5------------------||
|-5----------------|-5-----------------o||
|-6----------------|-5------------------||
|-7----------------|-7------------------||
|------------------|-------------------o||
|------------------|--------------------||
|
| Q  E E +E  E E E   Q  E E +E  E E E   3x
|-5--5-5-(5)-5-5---|-5--5-5-(5)-5-5-----||
|-5--5-5-(5)-5-5---|-5--5-5-(5)-5-5----o||
|-6--6-6-(6)-6-6---|-5--5-5-(5)-5-5-----||
|-7--7-7-(7)-7-7---|-7--7-7-(7)-7-7-----||
|-7--7-7-(7)-7-7---|-7--7-7-(7)-7-7----o||
|-5--5-5-(5)-5-5---|-5--5-5-(5)-5-5-----||


                                                  To Coda
  Em                 G                  A                   Am
  W                  W                  W                   W
|-0----------------|-3----------------|-5-----------------|-5----------------||
|-0----------------|-3----------------|-5-----------------|-5----------------||
|-0----------------|-4----------------|-6-----------------|-5----------------||
|-2----------------|-5----------------|-7-----------------|-7----------------||
|------------------|------------------|-------------------|------------------||
|------------------|------------------|-------------------|------------------||
|
| Q  E E +E  E E E   Q  E E +E  E E E   Q  E E +E  E E E    Q  E E +E  E E E
|-0--0-0-(0)-0-0---|-3--3-3-(3)-3-3---|-5--5-5-(5)-5-5----|-5--5-5-(5)-5-5---||
|-0--0-0-(0)-0-0---|-3--3-3-(3)-3-3---|-5--5-5-(5)-5-5----|-5--5-5-(5)-5-5---||
|-0--0-0-(0)-0-0---|-4--4-4-(4)-4-4---|-6--6-6-(6)-6-6----|-5--5-5-(5)-5-5---||
|-2--2-2-(2)-2-2---|-5--5-5-(5)-5-5---|-7--7-7-(7)-7-7----|-7--7-7-(7)-7-7---||
|-2--2-2-(2)-2-2---|-5--5-5-(5)-5-5---|-7--7-7-(7)-7-7----|-7--7-7-(7)-7-7---||
|-0--0-0-(0)-0-0---|-3--3-3-(3)-3-3---|-5--5-5-(5)-5-5----|-5--5-5-(5)-5-5---||


   Chorus
    Em                 G
    W                  W
||--0----------------|-3----------------|
||o-0----------------|-3----------------|
||--0----------------|-4----------------|
||--2----------------|-5----------------|
||o------------------|------------------|
||-------------------|------------------|
|
|   Q  E E +E  E E E   Q  E E +E  E E E
||--0--0-0-(0)-0-0---|-3--3-3-(3)-3-3---|
||o-0--0-0-(0)-0-0---|-3--3-3-(3)-3-3---|
||--0--0-0-(0)-0-0---|-4--4-4-(4)-4-4---|
||--2--2-2-(2)-2-2---|-5--5-5-(5)-5-5---|
||o-2--2-2-(2)-2-2---|-5--5-5-(5)-5-5---|
||--0--0-0-(0)-0-0---|-3--3-3-(3)-3-3---|


  A                  Am
  W                  W                  3x
|-5----------------|-5------------------||
|-5----------------|-5-----------------o||
|-6----------------|-5------------------||
|-7----------------|-7------------------||
|------------------|-------------------o||
|------------------|--------------------||
|
| Q  E E +E  E E E   Q  E E +E  E E E   3x
|-5--5-5-(5)-5-5---|-5--5-5-(5)-5-5-----||
|-5--5-5-(5)-5-5---|-5--5-5-(5)-5-5----o||
|-6--6-6-(6)-6-6---|-5--5-5-(5)-5-5-----||
|-7--7-7-(7)-7-7---|-7--7-7-(7)-7-7-----||
|-7--7-7-(7)-7-7---|-7--7-7-(7)-7-7----o||
|-5--5-5-(5)-5-5---|-5--5-5-(5)-5-5-----||


           Slower Q=136
  Em          N.C.
  W           W          W
|-0--------||----------|------||
|-0--------||----------|------||
|-0--------||----------|------||
|-2--------||----------|------||
|----------||----------|------||
|----------||----------|------||
|
| W           W          W
|-0--------||----------|------||
|-0--------||----------|------||
|-0--------||----------|------||
|-2--------||----------|------||
|-2--------||----------|------||
|-0--------||----------|------||


 Bridge
  B
  Gtr II
  PM-------------------------------------------
  E E  E  E  E  E  E E   E E  E  E  E  E  E E
|----------------------|----------------------|
|----------------------|----------------------|
|------------2---------|------------2---------|
|-4-4--------4--4--6-4-|-4-4--------4--4--6-4-|
|-2-2--6--6------------|-2-2--6--6------------|
|----------------------|----------------------|
|
| Gtr III
| PM-------------------------------------------
| E E  E  E  E  E  E E   E E  E  E  E  E  E E
|----------------------|----------------------|
|----------------------|----------------------|
|----------------------|----------------------|
|----------------------|----------------------|
|-9-9-11-11-12-12-11-9-|-9-9-11-11-12-12-11-9-|
|-7-7--7--7--7--7--7-7-|-7-7--7--7--7--7--7-7-|


  A                   E7+9
 ---------------------------------------|
  E E E E  E  E E E   E   E E E E   E E E
|-------------------|----------------------|
|-------------------|----------------------|
|-------------------|----------------------|
|-2-2------2--2-4-2-|----------------------|
|-0-0-4-4-----------|-2---2-----2---2-4-2--|
|-------------------|-0---0-4-4------------|
|
|-----------------|
| E E E E  E  E E E   S S e E E S S e E E
|-------------------|----------------------|
|-------------------|-8-8-8-8--------------|
|-------------------|-7-7-7-7--------------|
|-------------------|-6-6-6-6--------------|
|-7-7-9-9-10-10-9-7-|-7-7-7-7-7---5--------|
|-5-5-5-5--5--5-5-5-|-----------7---7-7-0--|


  B
  PM-------------------------------------------
  E E  E  E  E  E  E E   E E  E  E  E  E  E E
|----------------------|----------------------|
|----------------------|----------------------|
|------------2---------|------------2---------|
|-4-4--------4--4--6-4-|-4-4--------4--4--6-4-|
|-2-2--6--6------------|-2-2--6--6------------|
|----------------------|----------------------|
|
| PM-------------------------------------------
| E E  E  E  E  E  E E   E E  E  E  E  E  E E
|----------------------|----------------------|
|----------------------|----------------------|
|----------------------|----------------------|
|----------------------|----------------------|
|-9-9-11-11-12-12-11-9-|-9-9-11-11-12-12-11-9-|
|-7-7--7--7--7--7--7-7-|-7-7--7--7--7--7--7-7-|


  A                   C#
 -----------------|
  E E E E  E  E E E   H.      Q
|-------------------|--------------|
|-------------------|-6-------6----|
|-------------------|-6-------6----|
|-2-2------2--2-4-2-|-6-------6----|
|-0-0-4-4-----------|-4-------4----|
|-------------------|--------------|
|
|-----------------|
| E E E E  E  E E E   H.      E E
|-------------------|--------------|
|-------------------|-6-------6----|
|-------------------|-6-------6----|
|-------------------|-6-------6----|
|-7-7-9-9-10-10-9-7-|-4-------4----|
|-5-5-5-5--5--5-5-5-|--------------|


                                 Out-Chorus
           Q=170
D.S. al Cod&
              Am
           Gtrs I, II
  W           Q  E E +E  E E E    Q  E E +E  E E E   Q  E E +E  E E E
|----------||-5--5-5-(5)-5-5---||-0--0-0-(0)-0-0---|-3--3-3-(3)-3-3---|
|-4--------||-5--5-5-(5)-5-5---||-0--0-0-(0)-0-0---|-3--3-3-(3)-3-3---|
|-4--------||-5--5-5-(5)-5-5---||-0--0-0-(0)-0-0---|-4--4-4-(4)-4-4---|
|-4--------||-7--7-7-(7)-7-7---||-2--2-2-(2)-2-2---|-5--5-5-(5)-5-5---|
|-2--------||------------------||------------------|------------------|
|----------||------------------||------------------|------------------|
|
|          Gtr III
| W           Q  E E +E  E E E    Q  E E +E  E E E   Q  E E +E  E E E
|----------||-5--5-5-(5)-5-5---||-0--0-0-(0)-0-0---|-3--3-3-(3)-3-3---|
|-4--------||-5--5-5-(5)-5-5---||-0--0-0-(0)-0-0---|-3--3-3-(3)-3-3---|
|-4--------||-5--5-5-(5)-5-5---||-0--0-0-(0)-0-0---|-4--4-4-(4)-4-4---|
|-4--------||-7--7-7-(7)-7-7---||-2--2-2-(2)-2-2---|-5--5-5-(5)-5-5---|
|-2--------||-7--7-7-(7)-7-7---||-2--2-2-(2)-2-2---|-5--5-5-(5)-5-5---|
|----------||-5--5-5-(5)-5-5---||-0--0-0-(0)-0-0---|-3--3-3-(3)-3-3---|


  A                  Am                   Em
  Q  E E +E  E E E   Q  E E +E  E E E     E E E E  E  E E E
|-5--5-5-(5)-5-5---|-5--5-5-(5)-5-5---||--0-0-0-0--0--0-0-0-|
|-5--5-5-(5)-5-5---|-5--5-5-(5)-5-5---||o-0-0-0-0--0--0-0-0-|
|-6--6-6-(6)-6-6---|-5--5-5-(5)-5-5---||--0-0-0-0--0--0-0-0-|
|-7--7-7-(7)-7-7---|-7--7-7-(7)-7-7---||--2-2-2-2--2--2-2-2-|
|------------------|------------------||o-------------------|
|------------------|------------------||--------------------|
|
| Q  E E +E  E E E   Q  E E +E  E E E     Q   E E +E  E Q
|-5--5-5-(5)-5-5---|-5--5-5-(5)-5-5---||--0---0-0-(0)-0-0---|
|-5--5-5-(5)-5-5---|-5--5-5-(5)-5-5---||o-0---0-0-(0)-0-0---|
|-6--6-6-(6)-6-6---|-5--5-5-(5)-5-5---||--0---0-0-(0)-0-0---|
|-7--7-7-(7)-7-7---|-7--7-7-(7)-7-7---||--2---2-2-(2)-2-2---|
|-7--7-7-(7)-7-7---|-7--7-7-(7)-7-7---||o-2---2-2-(2)-2-2---|
|-5--5-5-(5)-5-5---|-5--5-5-(5)-5-5---||--0---0-0-(0)-0-0---|


                                         1.,2.
  G                   A                   Am
  E E E E  E  E E E   E E E E  E  E E E   E E E E  E  E E E  3x
|-3-3-3-3--3--3-3-3-|-5-5-5-5--5--5-5-5-|-5-5-5-5--5--5-5-5--||
|-3-3-3-3--3--3-3-3-|-5-5-5-5--5--5-5-5-|-5-5-5-5--5--5-5-5-o||
|-4-4-4-4--4--4-4-4-|-6-6-6-6--6--6-6-6-|-5-5-5-5--5--5-5-5--||
|-5-5-5-5--5--5-5-5-|-7-7-7-7--7--7-7-7-|-7-7-7-7--7--7-7-7--||
|-------------------|-------------------|-------------------o||
|-------------------|-------------------|--------------------||
|
| Q   E E +E  E Q     Q   E E +E  E Q     Q   E E +E  E Q    3x
|-3---3-3-(3)-3-3---|-5---5-5-(5)-5-5---|-5---5-5-(5)-5-5----||
|-3---3-3-(3)-3-3---|-5---5-5-(5)-5-5---|-5---5-5-(5)-5-5---o||
|-4---4-4-(4)-4-4---|-6---6-6-(6)-6-6---|-5---5-5-(5)-5-5----||
|-5---5-5-(5)-5-5---|-7---7-7-(7)-7-7---|-7---7-7-(7)-7-7----||
|-5---5-5-(5)-5-5---|-7---7-7-(7)-7-7---|-7---7-7-(7)-7-7---o||
|-3---3-3-(3)-3-3---|-5---5-5-(5)-5-5---|-5---5-5-(5)-5-5----||


  3.
  Am                  Em
  E E E E  E  E E E   W          +W
|-5-5-5-5--5--5-5-5-|-0--------|-(0)----*|
|-5-5-5-5--5--5-5-5-|-0--------|-(0)----*|
|-5-5-5-5--5--5-5-5-|-0--------|-(0)----*|
|-7-7-7-7--7--7-7-7-|-2--------|-(2)----*|
|-------------------|----------|--------*|
|-------------------|----------|--------*|
|
| Q   E E +E  E Q     W          +W
|-5---5-5-(5)-5-5---|-0--------|-(0)----*|
|-5---5-5-(5)-5-5---|-0--------|-(0)----*|
|-5---5-5-(5)-5-5---|-0--------|-(0)----*|
|-7---7-7-(7)-7-7---|-2--------|-(2)----*|
|-7---7-7-(7)-7-7---|-2--------|-(2)----*|
|-5---5-5-(5)-5-5---|-0--------|-(0)----*|


Duration Legend
---------------
W - whole; H - half; Q - quarter; E - 8th; S - 16th; T - 32nd; X - 64th; a - acciaccatura
+ - note tied to previous; . - note dotted; .. - note double dotted
Uncapitalized letters represent notes that are staccato (1/2 duration)
Irregular groupings are notated above the duration line
Duration letters will always appear directly above the note/fret number it represents the
duration for.  Duration letters with no fret number below them represent rests.  Multi-
bar rests are notated in the form Wxn, where n is the number of bars to rest for.  Low
melody durations appear below the staff

Tablature Legend
----------------
 h   - hammer-on
 p   - pull-off
 b   - bend
 pb  - pre-bend
 r   - bend release (if no number after the r, then release immediately)
 /\  - slide into or out of (from/to "nowhere")
 s   - legato slide
 S   - shift slide
  - natural harmonic
[n]  - artificial harmonic
n(n) - tapped harmonic
 ~   - vibrato
 tr  - trill
 T   - tap
 TP  - trem. picking
 PM  - palm muting
\n/  - tremolo bar dip; n = amount to dip
 \n  - tremolo bar down
 n/  - tremolo bar up
/n\  - tremolo bar inverted dip
 =   - hold bend; also acts as connecting device for hammers/pulls
 <>  - volume swell (louder/softer)
 x   - on rhythm slash represents muted slash
 o   - on rhythm slash represents single note slash

Misc Legend
-----------
 |  - bar
||  - double bar
||o - repeat start
o|| - repeat end
*|  - double bar (ending)
 :  - bar (freetime)
 $  - Segno
 &  - Coda
Tempo markers -  = BPM(8/16=s8/s16), where s8 = swing 8ths, s16 = swing 16ths
Suggest correction
Creating personal tab
Creating personal tab
You can edit any tab online and save it as your Personal.

You can edit, replace or remove any tab part or add personal notes – all changes will be seen only by you.

Personal tabs can be accessed anytime from any device, even offline.
Learn more »
Give kudos to tab author, rate the tab!
1 2 3 4 5
comments
print report bad tab
guest
You may want to rate the tab now too:
select rating
Wanna post a correction for this tab? Suggest correction