Oops, an error
Loading. Please wait.

I Aint Got You Bass Tab

version 1
version 1

Whole song

Interactive

594 views 9 this week
no commentswrite comment
1 2 3 4 5
excellent!
x 1
add to favorites
launch autoscroll
font size
0
reset
guitar tuner
Tab Pro tools
  • play this tab
  • loop segment
  • change instrument
  • show fretboard
  • metronome
Autoscroll
slow
fast
+/-
esc
set tempo
stop
Contributor
I Ain't Got You
The Yardbirds
Written by Clarence Carter; released as the B-side to "Good Morning Little 
Schoolgirl".

Intro:
G|------ ------ ------ ------|------ ------ ------ ------|
D|---------------------------|---------------------------|
A|-------2------3------5-----|---------------------------|
E|3--------------------------|3----------3---------------|



G|------ ------ ------ ------|------ ------ ------ ------|
D|---------------------------|---------------------------|
A|-------2------3------5-----|---------------------------|
E|3--------------------------|3----------3---------------|
                                                I  got a

Verse:
G|------ ------ ------ ------|------ ------ ------ ------|
D|---------------------------|---------------------------|
A|-------2------3------5-----|---------------------------|
E|3--------------------------|3----------3---------------|
  Ma- sera - ti G      T                           with a


G|------ ------ ------ ------|------ ------ ------ ------|
D|---------------------------|---------------------------|
A|-------2------3------5-----|---------------------------|
E|3--------------------------|3----------3---------------|
  snake- skin upholstery,                       I  got a


G|------ ------ ------ ------|------ ------ ------ ------|
D|---------------------------|---------------------------|
A|-------2------3------5-----|---------------------------|
E|3--------------------------|3----------3---------3---3-|
  charge    at Gold - blatt's,                    but I
      account

G|------ ------ ------ ------|------ ------ ------ ------|
D|---------------------------|---------------------------|
A|1------1-------------------|---------------------------|
E|--------------3------------|---------------------------|
  ain't  got    you.                               Got a

Verse:
G|------ ------ ------ ------|------ ------ ------ ------|
D|---------------------------|---------------------------|
A|-------2------3------5-----|---------------------------|
E|3--------------------------|3----------3---------------|
  closet full of clothes,                          but no


G|------ ------ ------ ------|------ ------ ------ ------|
D|---------------------------|---------------------------|
A|-------2------3------5-----|---------------------------|
E|3--------------------------|3----------3---------------|
  matter where it goes,                         It keeps a


G|------ ------ ------ ------|------ ------ ------ ------|
D|---------------------------|---------------------------|
A|-------2------3------5-----|---------------------------|
E|3--------------------------|3----------3---------3-----|
  ring   in  my nose,                              but I


G|------ ------ ------ ------|------ ------ ------ ------|
D|---------------------------|---------------------------|
A|1------1-------------------|---------------------------|
E|--------------3------------|---------------------------|
  ain't  got    you.                               Got a

Bridge:
G|------ 5---5- 3---3- ------|------ 5----- 3----- ------|
D|---------------------5-----|---------------------5-----|
A|3--------------------------|3--------------------------|
E|---------------------------|---------------------------|
  ta- vern             and a  liquor     store, I  play the


G|------ 5---5- 3---3- ------|------ 5----- 3----- ------|
D|---------------------5-----|---------------------5-----|
A|3--------------------------|3--------------------------|
E|---------------------------|---------------------------|
  numbers,             yeah,  four-forty-four,  I  got a


G|------ 5----- 3----- ------|------ 5----- 3----- ------|
D|---------------------5\----|---------------------5-----|
A|3--------------------------|3--------------------------|
E|---------------------------|---------------------------|
  mo- jo,              yeah,  don't  you know,         I'm


G|7----- ------ ------ ------|------ ------ ------ ------|
D|---------------------------|12\------------------------|
A|---------------------------|---------------------------|
E|---------------------------|---------------------------|
  all    dressed up with no          place to go.  Got

Verse:
G|------ ------ ------ ------|------ ------ ------ ------|
D|---------------------------|---------------------------|
A|-------2------3------5-----|---------------------------|
E|3--------------------------|3----------3---------------|
  women to the right of me,                     I  got


G|------ ------ ------ ------|------ ------ ------ ------|
D|---------------------------|---------------------------|
A|-------2------3------5-----|---------------------------|
E|3--------------------------|3----------3---------------|
  women to the left of me,                      I  got


G|------ ------ ------ ------|------ ------ ------ ------|
D|---------------------------|---------------------------|
A|-------2------3------5-----|---------------------------|
E|3--------------------------|3----------3---------3---3-|
  women  all a- round  me,                         but I


G|------ ------ ------ ------|------ ------ ------ ------|
D|---------------------------|---------------------------|
A|1------1-------------------|---------------------------|
E|--------------3------------|3----------3---------------|
  ain't  got    you,                               no, I


G|------ ------ ------ ------|------ ------ ------ ------|
D|---------------------------|---------------------------|
A|---------------------------|---------------------------|
E|---------------------------|3----------3---------------|
  ain't  got    you.

Break (solo):
G|------ ------ ------ ------|------ ------ ------ ------|
D|---------------------------|---------------------------|
A|---------------------------|---------------------------|
E|---------------------------|3----------3---------------|



G|------ ------ ------ ------|------ ------ ------ ------|
D|---------------------------|---------------------------|
A|---------------------------|---------------------------|
E|---------------------------|3----------3---------------|



G|------ ------ ------ ------|------ ------ ------ ------|
D|---------------------------|---------------------------|
A|---------------------------|---------------------------|
E|---------------------------|3----------3---------------|



G|------ ------ ------ ------|------ ------ ------ ------|
D|---------------------------|---------------------------|
A|---------------------------|---------------------------|
E|---------------------------|3----------3---------------|



G|------ ------ ------ ------|------ ------ ------ ------|
D|10-----8-------------8-----|------------------10-8-----|
A|--------------10-----------|-------7------10--------10-|
E|---------------------------|8--------------------------|



G|------ ------ ------ ------|10---- 1210-- 1210-- 1210--|
D|-------8------10-----12----|-----------12-----12-----12|
A|10-------------------------|---------------------------|
E|---------------------------|---------------------------|



G|------ ------ ------ ------|------ ------ ------ ------|
D|12----------------10-1210--|10-------------------8-----|
A|-------9------12---------12|-------7------10-----------|
E|---------------------------|---------------------------|



G|12---- 10---- ------ ------|------ ------ ------ ------|
D|--------------12--10-8-----|---------------------------|
A|---------------------------|10-----8------7------5-----|
E|---------------------------|---------------------------|
                                                   Got a

Bridge:
G|------ ------ 3----- ------|------ ------ 3----- ------|
D|-------5-------------5-----|-------5-------------5-----|
A|3--------------------------|3--------------------------|
E|---------------------------|---------------------------|
  ta- vern             and a  liquor     store, I  play the


G|------ ------ 3----- 5\----|------ ------ 3----- 5\----|
D|-------5-------------------|-------5-------------------|
A|3--------------------------|3--------------------------|
E|---------------------------|---------------------------|
  numbers,             yeah,  four-forty-four,  I  got a


G|------ ------ 3----- 5\----|------ ------ 3----- 5-----|
D|-------5-------------------|-------5-------------------|
A|3--------------------------|3--------------------------|
E|---------------------------|---------------------------|
  mo- jo,              yeah,  don't  you know,         I'm


G|7----- ------ ------ ------|------ ------ ------ ------|
D|---------------------------|12\------------------------|
A|---------------------------|---------------------------|
E|---------------------------|---------------------------|
  all    dressed up with no          place to go. I got

Verse:
G|------ ------ ------ ------|------ ------ ------ ------|
D|---------------------------|---------------------------|
A|-------2------3------5-----|---------------------------|
E|3--------------------------|3----------3---------------|
  women to the right of me,                     I  got


G|------ ------ ------ ------|------ ------ ------ ------|
D|---------------------------|---------------------------|
A|-------2------3------5-----|---------------------------|
E|3--------------------------|3----------3---------------|
  women to the left of me,                      I  got


G|------ ------ ------ ------|------ ------ ------ ------|
D|---------------------------|---------------------------|
A|-------2------3------5-----|---------------------------|
E|3--------------------------|3----------3---------3---3-|
  women  all a- round  me,                         but I


G|------ ------ ------ ------|------ ------ ------ ------|
D|---------------------------|---------------------------|
A|1------1-------------------|---------------------------|
E|--------------3------------|3----------3---------------|
  ain't  got    you,                               no, I

Outro:
G|------ ------ ------ ------|------ ------ ------ ------|
D|---------------------------|---------------------------|
A|---------------------------|---------------------------|
E|---------------------------|3----------3---------------|
  ain't  got    you,                               no, I


G|------ ------ ------ ------|------ ------ ------ ------|
D|---------------------------|---------------------------|
A|---------------------------|---------------------------|
E|---------------------------|3----------3---------------|
  ain't  got    you.

Please e-mail me for any corrections, or write a comment.
comments
We did not receive enough feedback on this tab! Please rate:
print report bad tab
1 2 3 4 5
I want to post or [tab]
guest
You may want to rate the tab now too:
select rating
Please do not post tabs as comments. Select "correction" instead!