Oops, an error
Loading. Please wait.

Mystery Of Being Tab

473 views 1 this week
no commentswrite comment
1 2 3 4 5
2 more votes to show rating
add to favorites
launch autoscroll
font size
0
reset
how to read this tab
guitar tuner
×
Best way to learn
"Mystery Of Being"
Autoscroll
slow
fast
+/-
esc
set tempo
stop
Author
Yardbirds
Mystery of Being
off of Birdland

tabbed by Robert Balicki
Notes: The 1st solo is actually 15 measures, and I didn't tab
out the 2nd solo.

Theme
|----------------------------------------------------------|
|----------------------------------------------------------|
|----------4-----------------------------------------------|
|-7---7-7-----7--5--4--5-----------------------------------|
|-7---7-7--------------------------------------------------|
|-5---5-5--------------------------------------------------|
  1     2     3     4


Verse                x3
|---------------------|------------------------------------|
|---------------------|------------------------------------|
|--------------------:|------------------------------------|
|-7---7-7------------:|---5---5-5--------------------------|
|-7---7-7-------------|---5---5-5--------------------------|
|-5---5-5-------------|---3---3-3--------------------------|
  1     2     3     4     1     2     3     4
                          **********************
2nd guitar
  Verse, Chorus, Theme     * parts
|------------------------|---------------------------------|
|------------------------|---------------------------------|
|----------4-------------|----------5-4---45-7-------------|
|-7---7-7---7--5--45--7--|--5---5-5-----7------------------|
|-7---7-7----------------|--5---5-5------------------------|
|-5---5-5----------------|--3---3-3------------------------|


Chorus
|----------------------------------------------------------|
|----------------------------------------------------------|
|-7---7-7--------------------------------------------------|
|-7---7-7-----------------5---5-5--------------------------|
|-5---5-5-----------------5---5-5--------------------------|
|-------------------------3---3-3--------------------------|
  1     2     3     4     1     2     3     4

|----------------------------------------------------------|
|----------------------------------------------------------|
|----------------------------------------------------------|
|-7---7-7-----------------5---5-5--------------------------|
|-7---7-7-----------------5---5-5--------------------------|
|-5---5-5-----------------3---3-3--------------------------|
  1     2     3     4     1     2     3     4
                          **********************

Solo 1
|-----------------------------------------------------------------|
|-5-6-5---5-------------5-----5---8-----65------------------------|
|-------7-----------------7---------------7-----------------------|
|-----------------------------------------------------------------|
|-----------------------------------------------------------------|
|-----------------------------------------------------------------|
  1   2   3   4   1   2   3   4   1   2   3   4   1   2   3   4

|---------------------------------------------------------5-------|
|-5-6-5---5-------------5-----5---8-----65--------------6-----8---|
|-------7-----------------7---------------7-----------7-----------|
|-----------------------------------------------------------------|
|-----------------------------------------------------------------|
|-----------------------------------------------------------------|
  1   2   3   4   1   2   3   4   1   2   3   4   1   2   3   4

|---------------------------------------------------------5-------|
|-5-----------------5-5-------------5-------------------6-----8---|
|-----------------------7-----7---------7-----------7-------------|
|-------------------------7---------------7-----------------------|
|-----------------------------------------------------------------|
|-----------------------------------------------------------------|
  1   2   3   4   1   2   3   4   1   2   3   4   1   2   3   4


|-----------------------------------------------------------------|
|-5-----------------5-5-------------5-----------------------------|
|-----------------------7-----7---------7-------------------------|
|-------------------------7---------------7-----------------------|
|-----------------------------------------------------------------|
|-----------------------------------------------------------------|
  1   2   3   4   1   2   3   4   1   2   3   4


Order:
Ah! Intro (no guitar)
Theme x4
Verse x2
Theme x2
Verse x2
Chorus x2
Theme x4 1:20
Solo 1 (2nd guitar does verse/theme) 1:32
Theme only guitar 2 x4 2:00
Theme x4
Verse x2
Chorus x2
Theme x4
Outro solo over theme (not tabbed)

Comments, applause, jeering, questions, etc. direct to quietriot@gmail.com
Suggest correction
Give kudos to tab author, rate the tab!
1 2 3 4 5
comments
print report bad tab
guest
You may want to rate the tab now too:
select rating
Wanna post a correction for this tab? Suggest correction