Oops, an error
Loading. Please wait.

You Might As Well Be In Space tab

1,626 views 1 this week
2 commentsread comments
1 2 3 4 5
2 more votes to show rating
add to favorites
×
Save as Personal and add changes to this tab that will be seen only by you. Learn more ›
×
You can save this tab as Personal to edit and correct it or add notes. All changes will be seen only by you. Learn more »
launch autoscroll
font size
0
reset
how to read this tab
guitar tuner
edit
Autoscroll
slow
fast
+/-
esc
set tempo
stop
Band:The Years Gone By
Song:You Might As Well Be In Space
Guitarists:
Rhythm-Nick Madore
Lead-Mike Polimine
Album:Forever Comes Too Soon
Tuning:Drop D (D,A,D,G,B,e)
Key:
~:let ring
/-\:slide
x:scratch
X\:pickslide
*:natural harmonics

Intro:Rock Organ
e|---------| 
B|-s7~-7~--|  
G|-w7~-7~--|
D|-e7~-7~--|  
A|-l5~-4~--|  
D|-l-------| 

Verse:both
e|---------------------------------------------|
B|---------------------------------------------|
G|-77777777-99999999-1111111111111111-99999999-|
D|-77777777-99999999-1111111111111111-99999999-| x3
A|-55555555-77777777-9-9-9-9-9-9-9-9--77777777-|
D|---------------------------------------------|

  Lead- n.h.
e|-------------|  |-----------|
B|-7*-----7*---|  |-7*-----7*-|
G|---7*----7*--|  |---7*------|
D|-----7*---7*-|x7|-----7*----|
A|-------------|  |-----------|
D|-------------|  |-----------|

  Rythm
e|---------------------------------------------|
B|---------------------------------------------|
G|-77777777-99999999-1111111111111111-99999999-|
D|-77777777-99999999-1111111111111111-99999999-|
A|-55555555-77777777-9-9-9-9-9-9-9-9--77777777-|
D|---------------------------------------------|

e|------------------------------------------------|
B|------------------------------------------------|
G|-77777777-99999999-1111111111111111-9/11-x-911\-|
D|-77777777-99999999-1111111111111111-9/11-x-911\-|
A|-55555555-77777777-9-9-9-9-9-9-9-9--7/9--x-79\--|
D|------------------------------------------------|

Chorus:(x2)
  Rythm
e|-------------------------------------|
B|-------------------------------------|
G|-77777777----------------------------|
D|-77777777-77777777-99999999-77779999-| x1
A|-55555555-77777777-99999999-77779999-|
D|----------77777777-99999999-77779999-|
  
e|-----------------|
B|-----------------|
G|-777-999-111-777-|
D|-777-999-111-777-| x2
A|-555-777-999-777-|
D|-----------------|

  Lead
e|-------------------------------------|
B|-------------------------------------|
G|-77777777-77777777-77777777-77777777-|
D|-xxxxxxxx-xxxxxxxx-xxxxxxxx-xxxxxxxx-|
A|-55555555-55555555-55555555-55555555-|
D|-------------------------------------|
  those r 11's
e|------------------|  
B|------------------|
G|-77-799-911-199-9-|
D|-xx-xxx-xxx-xxx-x-| x2
A|-55-577-799-977-7-|
D|------------------|

Bridge: pickslides 
e|-----------------------R--------|
B|-----------------------h--------|
G|-7~-----------L--------y--------|
D|-7~-FRIDAY!!!-e--------t--------|
A|-5~-----------a-X\\\\\-h-X\\\\\-|
D|--------------d-X\\\\\-m-X\\\\\-|

Verse:both
e|-------------------------------------|
B|-------------------------------------|
G|-------------------------------------|
D|-77777777-99999999-11111111-99999999-|
A|-55555555-77777777-99999999-77777777-|
D|-------------------------------------|
pm ........ ........ ........ ........
                you're on the other coast!
e|-------------------------------------|
B|-------------------------------------|
G|-------------------11111111-99999999-|
D|-77777777-99999999-11111111-99999999-|
A|-55555555-77777777-99999999-77777777-|
D|-------------------------------------|
pm ........ ........ 

   4 hours!
e|---------------------------|
B|---------------------------|
G|-7-7-7-7-11119999-77779999-|
D|-7-7-7-7-11119999-77779999-|
A|-5-5-5-5-99997777-55557777-|
D|---------------------------|

  Lead- n.h.
e|-------------|  |-----------|
B|-7*-----7*---|  |-7*-----7*-|
G|---7*----7*--|  |---7*------|
D|-----7*---7*-|x7|-----7*----|
A|-------------|  |-----------|
D|-------------|  |-----------|

  Rythm
e|---------------------------------------------|
B|---------------------------------------------|
G|-77777777-99999999-1111111111111111-99999999-|
D|-77777777-99999999-1111111111111111-99999999-|
A|-55555555-77777777-9-9-9-9-9-9-9-9--77777777-|
D|---------------------------------------------|

e|------------------------------------------------|
B|------------------------------------------------|
G|-77777777-99999999-1111111111111111-9/11-x-911\-|
D|-77777777-99999999-1111111111111111-9/11-x-911\-|
A|-55555555-77777777-9-9-9-9-9-9-9-9--7/9--x-79\--|
D|------------------------------------------------|

Chorus:(x2)
Rythm
e|-------------------------------------|
B|-------------------------------------|
G|-77777777----------------------------|
D|-77777777-77777777-99999999-77779999-| x1
A|-55555555-77777777-99999999-77779999-|
D|----------77777777-99999999-77779999-|

e|-----------------|
B|-----------------|
G|-777-999-111-777-|
D|-777-999-111-777-| x2
A|-555-777-999-777-|
D|-----------------|

  Lead
e|-------------------------------------|
B|-------------------------------------|
G|-77777777-77777777-77777777-77777777-|
D|-xxxxxxxx-xxxxxxxx-xxxxxxxx-xxxxxxxx-| x1
A|-55555555-55555555-55555555-55555555-|
D|-------------------------------------|
  those r 11's
e|------------------|  
B|------------------|
G|-77-799-911-199-9-|
D|-xx-xxx-xxx-xxx-x-| x2
A|-55-577-799-977-7-|
D|------------------|

Bridge: Can't move my feet!
e|---------|
B|---------|
G|-7~--9~--|
D|-7~--9~--|
A|-5~--7~--|
D|---------|

Breakdown:
 I Can't Stop!
e|--------------------------------|
B|--------------------------------|
G|-----7~~--77-77-77-7-77-77-77-7-| 
D|-000-7~~--xx-xx-xx-x-xx-xx-xx-x-| x2
A|-000-5~~--55-55-55-5-55-55-55-5-|
D|-000----------------------------|

e|---------------------------------|
B|------------------------------7*-|
G|-77777777-99999999--77777777-----|
D|-77777777-99999999--xxxxxxxx-----|
A|-55555555-77777777--55555555-----|
D|---------------------------------|

Chorus:(x2)
Rythm
e|-------------------------------------|
B|-------------------------------------|
G|-77777777----------------------------|
D|-77777777-77777777-99999999-77779999-| x1
A|-55555555-77777777-99999999-77779999-|
D|----------77777777-99999999-77779999-|

e|-----------------|
B|-----------------|
G|-777-999-111-777-|
D|-777-999-111-777-| x2
A|-555-777-999-777-|
D|-----------------|

  Lead
e|-------------------------------------|
B|-------------------------------------|
G|-77777777-77777777-77777777-77777777-|
D|-xxxxxxxx-xxxxxxxx-xxxxxxxx-xxxxxxxx-| x1
A|-55555555-55555555-55555555-55555555-|
D|-------------------------------------|
  those r 11's
e|------------------|  
B|------------------|
G|-77-799-911-199-9-|
D|-xx-xxx-xxx-xxx-x-| x2
A|-55-577-799-977-7-|
D|------------------|

Outro:
e|---------|
B|---------|
G|-7~7~7~~-|
D|-7~7~7~~-|
A|-5~5~5~~-|
D|---------|

Fuck yeah! put this shit in drop d 



            
            
Suggest correction
Creating personal tab
Creating personal tab
You can edit any tab online and save it as your Personal.

You can edit, replace or remove any tab part or add personal notes – all changes will be seen only by you.

Personal tabs can be accessed anytime from any device, even offline.
Learn more »
Give kudos to tab author, rate the tab!
1 2 3 4 5
comments
print report bad tab
2 comments total.
+1 reply
Noel182 50 Jul 24, 2009 12:50 AM

Awesome. I would've preffered for some parts to be more detailed on those little changes and stuff but you basically give us the draft to figure them out. Great tab none the less :)

0 reply
Noel182 50 Jul 24, 2009 12:51 AM

Awesome. I would've preffered for some parts to be more detailed on those little changes and stuff but you basically give us the draft to figure them out. Great tab none the less :)

guest
You may want to rate the tab now too:
select rating
Wanna post a correction for this tab? Suggest correction