Oops, an error
Loading. Please wait.

Diggy Diggy Hole tab

958 views 3 this week
no commentswrite comment
1 2 3 4 5
2 more votes to show rating
add to favorites
×
Save as Personal and add changes to this tab that will be seen only by you. Learn more ›
×
You can save this tab as Personal to edit and correct it or add notes. All changes will be seen only by you. Learn more »
launch autoscroll
font size
0
reset
how to read this tab
guitar tuner
edit
Autoscroll
slow
fast
+/-
esc
set tempo
stop
-------------------------------------------------------------------------------
                            Diggy Diggy Hole - Yogscast
-------------------------------------------------------------------------------
Tabbed by: SilkHoney
E-mail: travelwithyoursafe@gmail.com

Tuning: Standard
Capo: 2 (or in your singing key, 2 for guys, suggested 5 or so for gals)

Why is everyone so lazy, this song is old and I still have to tab it myself.
I'm not the best out there either, so please comment suggestions or email me.


*: if you want it to be a strum that's okay, or you can follow the picked tab.

Verse

   Em                  C    Em
e|-----------------------------------------------|
B|------------------------1----------------------|
G|------------------0-----------0--0-------------|       x 2
D|--2--2--2--0--2-4-------------2----4--2--------|
A|--------------------2---3-------------2--------|
E|--0---------------0-----------0----------0-----|

  Em                      C                 G  Em                      B*
e|---------------------------------------------------------------------------------------------|
B|------------------------1--1--1--1--0-----0-----------------------------------------------4--|
G|------------------0--------------------2--0---------------------0---------------------0---4--|
D|--2--2--2--0--2-4-------------------------0---2--2--2--0--2--4-------4--4--4--4--2--4-----4--|
A|--------------------2---3-----------------------------------------2--------------------------|
E|--0---------------0-----------------------3---0-----------------0----2--------------------2--|

Pre-Chorus

   C                  D                 Em
e|-------------------------------------------------|
B|-1---0----0--------------------------------------|
G|-------2-------0----2--2--2--4--2--0-------------|
D|---2---------0---0--2-----------2------2---2-----|     x 2
A|-3--------3--------------------------------2-----|
E|---------------------------------------0---------|

   C                     B        C        C                     D
e|------------------------------------------------------------------------0-----|
B|-1---0---0----------4---0------------------------------0------------0-3---3---|
G|-------2------0-------4---2--0-----0----0---0---0--2---0----2--2--2---2---2---|
D|---2--------0---0---------------2-----2---2---2----------2--2-----------------|
A|-3-------3----------2--------3----------3---3---3------3----------------------|
E|------------------------------------------------------------------------------|

For the 12 beats of drum before every chorus, just quickly play the lower E string!
For the extra long drums before the very last chorus, play it 24 times!

Chorus

   Em                                   C        G       C            B*   
e|----------------------------------------------------------------------------|
B|----------------------------------------------------------------------------|
G|----------0---0--4--2---0----------0--0---0----------0--0----0------------4-|
D|-2---2--4---2---------0---4--2---2------2---2--0---0------2----2----4---4---|
A|---2------2---------2----------2------3---3------2------3----3--------2-----|
E|-0---------------------------0-----------------3--------------------2-------|

   Em                                   C        G        B          Em*
e|----------------------------------------------------------------------------|
B|----------------------------------------------------------------------------|
G|----------0---0--4--2---0----------0--0---0----------0--------------------0-|
D|-2---2--4---2---------0---4--2---2------2---2--0---0----4---2--4---2----2---|
A|---2------2---------2----------2------3---3------2--------------------2-----|
E|-0---------------------------0-----------------3--------2----------0--------|



************************************

Have fun with this great, catchy song! Your achievement in playing this tab fluently
might be under-appreciated.
This is my second tab ever, so be sure to make suggestions and comments to help! :)

************************************
Suggest correction
Creating personal tab
Creating personal tab
You can edit any tab online and save it as your Personal.

You can edit, replace or remove any tab part or add personal notes – all changes will be seen only by you.

Personal tabs can be accessed anytime from any device, even offline.
Learn more »
Give kudos to tab author, rate the tab!
1 2 3 4 5
comments
print report bad tab
guest
You may want to rate the tab now too:
select rating
Wanna post a correction for this tab? Suggest correction