Oops, an error
Loading. Please wait.

Mustang Sally bass

121 views 3 this week
no commentswrite comment
1 2 3 4 5
3 more votes to show rating
add to favorites
×
Save as Personal and add changes to this tab that will be seen only by you. Learn more ›
×
You can save this tab as Personal to edit and correct it or add notes. All changes will be seen only by you. Learn more »
launch autoscroll
font size
0
reset
guitar tuner
edit
Autoscroll
slow
fast
+/-
esc
set tempo
stop
Author
Difficulty
Tabbed by: 6METAL6BASSIST6
E-mail: petergriffinav@gmail.com

Tuning: EADG

Single version.

G|----------------------------------------------------------------|
D|----------------------------------------------------------------|
A|----------------------------------------------------------------|
E|3-------------------0---3---2---1-------------------0---1---3---|

G|----------------------------------------------------------------|
D|----------------------------------------------------------------|
A|3---------------------------------------------------------------|
E|--------------------------------3-------------------------------|

0:11

G|----------------3---3---------------------------3---3-----------|
D|--------------5-------------5-----------------5-------------5---| x4
A|3-------------------------------3-------------------------------|
E|----------------------------------------------------------------|

0:31

G|----------------------------------------------------------------|
D|----------------1---1---------------------------1---1-----------|
A|--------------3-------------3-----------------3-------------3---|
E|1-------------------------------1-------------------------------|

G|----------------------------------------------------------------|
D|----------------1---1---------------------------1---1-----------|
A|--------------3-------------3-----------------3-------------2---|
E|1-------------------------------1-------------------------------|

G|----------------3---3---------------------------3---3-----------|
D|--------------5-------------5-----------------5-------------5---| x2
A|3-------------------------------3-------------------------------|
E|----------------------------------------------------------------|

0:51

G|----------------------------------------------------------------|
D|----------------3---3---------------------------3---3-----------|
A|--------------5-------------5-----------------5-------------5---|
E|3-------------------------------3-------------------------------|

G|------------------------------------------------------------5---|
D|----------------------------------------------------5---5/7-----|
A|------------------------------------------------5/7-------------|
E|1---------------------------------------------------------------|

G|----------------3---3---------------------------3---3-----------|
D|--------------5-------------5-----------------5-------------5---|
A|3-------------------------------3-------------------------------|
E|----------------------------------------------------------------|

G|----------------------------------------------------------------|
D|5-------5---------------------------5---5---5---5---2---2-------|
A|------------------------------------------------------------5---|
E|------------------------3---------------------------------------|

1:11

G|----------------------------------------------------------------|
D|----------------------------------------------------------------|
A|3-------3-------3-----------3-----------3-------3-----------3---|
E|--------------------3---5---------------------------3---5-------|

G|----------------------------------------------------------------|
D|----------------------------------------------------------------|
A|--------3-------3-----------3-----------3-------3-----------3---|
E|--------------------3---5---------------------------3---5-------|

G|----------------------------------------------------------------|
D|----------------------------------------------------------------|
A|3-------3-------3-----------3---3-------3-------3-----------3---|
E|--------------------3---5---------------------------3---5-------|

G|----------------------------------------------------------------|
D|------------------------------------------------------------3---|
A|--------3-------3-----------3-----------3-------3---3---5-------|
E|--------------------3---5---------------------------------------|

1:30

G|----------------------------------------------------------------|
D|--------3-------3-----------3-----------3-------3-----------3---|
A|--------------------3---5---------------------------3---5-------|
E|----------------------------------------------------------------|

G|----------------------------------------------------------------|
D|--------3-------3-----------3-----------3-------3---2-----------|
A|--------------------3---5-------------------------------5---3---|
E|----------------------------------------------------------------|

G|----------------------------------------------------------------|
D|----------------------------------------------------------------|
A|--------3-------3-----------3-----------3-------3-----------3---|
E|--------------------3---5---------------------------3---5-------|

G|----------------------------------------------------------------|
D|----------------------------------------------------------------|
A|--------3-------3-----------3-----------3-------3---3---2-------|
E|--------------------3---5-----------------------------------5---|

1:50

G|----------------------------------------------------------------|
D|----------------------------------------------------------------|
A|----------------------------------------------------------------|
E|3-------3-------3-------3-------3-------3-------3---0---3---0---|

G|----------------------------------------------------------------|
D|----------------------------------------------------------------|
A|----------------------------------------------------------------|
E|1---------------------------------------------------------------|

G|----------------------------------------------------------------|
D|----------------------------------------------------------------|
A|3-------3-------3-----------3-----------3-------3---3---2-------|
E|--------------------3---5-----------------------------------5---|

G|----------------------------------------------------------------|
D|----------------------------------------------------------------|
A|------------------------------------------------------------2---|
E|3-------3---------------3-----------3-------3---3---3---5-------|

2:09

G|----------------3---3---------------------------3---3-----------|
D|--------------5-------------5-----------------5-------------5---| x3
A|3-------------------------------3-------------------------------|
E|----------------------------------------------------------------|

G|----------------------------------------------------------------|
D|----------------------------------------------------------------|
A|3---------------------------------------------------------------|
E|----------------------------------------------------------------|

2:29

G|----------------------------------------------------------------|
D|----------------1---1---------------------------1---1-----------|
A|--------------3-------------3-----------------3-------------3---|
E|1-------------------------------1-------------------------------|

G|----------------------------------------------------------------|
D|----------------1---1---------------------------1---1-----------|
A|--------------3-------------3-----------------3-------------2---|
E|1-------------------------------1-------------------------------|

G|----------------3---3---------------------------3---3-----------|
D|--------------5-------------5-----------------5-------------5---| x2
A|3-------------------------------3-------------------------------|
E|----------------------------------------------------------------|

2:49

G|----------------------------------------------------------------|
D|----------------3---3---------------------------3---3---3-------|
A|--------------5-------------5-----------------5-------------5---|
E|3-------------------------------3-------------------------------|

G|----------------------------------------------------------------|
D|3---------------------------------------------------------------|
A|------------------------------------------------------------2---|
E|----------------------------------------------------3---5-------|

G|----------------3---3---------------------------3---3-----------|
D|--------------5-------------5-----------------5-------------5---|
A|3-------------------------------3-------------------------------|
E|----------------------------------------------------------------|

G|----------------------------------------------------------------|
D|----------------------------------------------------------------|
A|------------------------------------------------------------2---|
E|3-------3---------------3-----------3---3---3---3---3---5-------|

3:09

G|----------------------------------------------------------------|
D|----------------------------------------------------------------|
A|3-------3-------3-----------3-----------3-------3-----------3---|
E|--------------------3---5---------------------------3---5-------|

G|----------------------------------------------------------------|
D|----------------------------------------------------------------| x2
A|--------3-------3-----------3-----------3-------3-----------3---|
E|--------------------3---5---------------------------3---5-------|

G|----------------------------------------------------------------|
D|------------------------------------------------------------2---|
A|--------3-------3-----------3-----------3-------3---3---5-------|
E|--------------------3---5---------------------------------------|

3:29

G|----------------------------------------------------------------|
D|3-------3-------3-----------3-------3-------3---------------3---|
A|--------------------3---5---------------------------3---5-------|
E|----------------------------------------------------------------|

G|----------------------------------------------------------------|
D|--------3-------3-----------3-------3-------3-------------------|
A|--------------------3---5-----------------------------------3---|
E|----------------------------------------------------3---5-------|

G|----------------------------------------------------------------|
D|----------------------------------------------------------------|
A|--------3-------3-----------3-------3-------3---------------3---|
E|--------------------3---5---------------------------3---5-------|

G|----------------------------------------------------------------|
D|----------------------------------------------------------------|
A|--------3-------3-----------3--------3-------3------3---2-------|
E|--------------------3---5-----------------------------------5---|

3:47

G|----------------------------------------------------------------|
D|----------------------------------------------------------------|
A|----------------------------------------------------------------|
E|3-------3-------3-------3-------1-------1-------1-------1-------|

G|------------------------------------------------------|
D|------------------------------------------------------|
A|3-----------------------1-----2-----3-----1-----2-----|
E|------------------------------------------------------|
Suggest correction
Creating personal tab
Creating personal tab
You can edit any tab online and save it as your Personal.

You can edit, replace or remove any tab part or add personal notes – all changes will be seen only by you.

Personal tabs can be accessed anytime from any device, even offline.
Learn more »
Give kudos to tab author, rate the tab!
1 2 3 4 5
comments
print report bad tab
guest
You may want to rate the tab now too:
select rating
Wanna post a correction for this tab? Suggest correction