Oops, an error
Loading. Please wait.

Lets Get Together tab

12,192 views 30 this week
no commentswrite comment
1 2 3 4 5
x 6
add to favorites
×
Save as Personal and add changes to this tab that will be seen only by you. Learn more ›
×
You can save this tab as Personal to edit and correct it or add notes. All changes will be seen only by you. Learn more »
launch autoscroll
font size
0
reset
how to read this tab
guitar tuner
edit
Autoscroll
slow
fast
+/-
esc
set tempo
stop
Band: Youngbloods
Song: Let's get together

Intro:
e----------------------------------------------------------------------------|
b-----10-----10---------10-------10---------8-----8-----8-----8--------------|
g---------9------------------9-----------------7-----------7-----------------|
d------------------------------------11/9------------9-----------9/11--------|
a--0--------------0----------------------------------------------------------|
E----------------------------------------------------------------------------|


e-----5--------------------------------------------------------------------|
b-----5--------------------------------------------------------------------|
g-----6--------------------------------------------------------------------|
d-----7--------------------------------------------------------------------|
a-----7--------------------------------------------------------------------|
E-----5--------------------------------------------------------------------|
      Love   is   but   the   song   we   sing,

e--------------------------------------3----------------------------------|
b--------------------------------------3----------------------------------|
g--------------------------------------4----------------------------------|
d--------------------------------------5----------------------------------|
a--------------------------------------5----------------------------------|
E--------------------------------------3----------------------------------|
      And   fear's   the   way   we    die
e-----5--------------------------------------------------------------------|
b-----5--------------------------------------------------------------------|
g-----6--------------------------------------------------------------------|
d-----7--------------------------------------------------------------------|
a-----7--------------------------------------------------------------------|
E-----5--------------------------------------------------------------------|
      You   can   make  the  mountains  ring

e----------------------------3---------------------------------------------|
b----------------------------3---------------------------------------------|
g----------------------------4---------------------------------------------|
d----------------------------5---------------------------------------------|
a----------------------------5---------------------------------------------|
E----------------------------3---------------------------------------------|
      Or  make  the  angels  cry


e-----5---------------------------------------------------------------------|
b-----5---------------------------------------------------------------------|
g-----6---------------------------------------------------------------------|
d-----7---------------------------------------------------------------------|
a-----7---------------------------------------------------------------------|
E-----5---------------------------------------------------------------------|
      Know  the  dove  is  on  the  wing


e--------------------------------3------------------------------------------|
b--------------------------------3------------------------------------------|
g--------------------------------4------------------------------------------|
d--------------------------------5------------------------------------------|
a--------------------------------5------------------------------------------|
E--------------------------------3------------------------------------------|
      And  you  need  not  know  why


e---------------------------------------------------------------------------|
b----7-----------------9----------------------------------------------------|
g----7-----------------9----------------------------------------------------|
d----7-----------------9----------------------------------------------------|
a----5-----------------7----------------------------------------------------|
E---------------------------------------------------------------------------|
    C'mon  people  now, Smile  on  your  brother


e-----------5------------------------------------------------------5--------|
b-----------5------------------7--------------------9--------------5--------|
g-----------6------------------7--------------------9--------------6--------|
d-----------7------------------7--------------------9--------------7--------|
a-----------7------------------5--------------------7--------------7--------|
E-----------5------------------------------------------------------5--------|
    Ev'rybody  get  together  Try  and  love  one  another  right  now
                                                                       ::2x::


e---5--------------------------------------------------------3--------------|
b---5--------------------------------------------------------3--------------|
g---6--------------------------------------------------------4--------------|
d---7--------------------------------------------------------5--------------|
a---7--------------------------------------------------------5--------------|
E---5--------------------------------------------------------3--------------|
    Some  will  come  and  some  will  go  We  shall  surely  pass

e----5-----------------------------------------------------------3----------|
b----5-----------------------------------------------------------3----------|
g----6-----------------------------------------------------------4----------|
d----7-----------------------------------------------------------5----------|
a----7-----------------------------------------------------------5----------|
E----5-----------------------------------------------------------3----------|
    When  the  one  that  left  us  here  Returns  for  us  at  last


e---5-----------------------------------------------------3-----------------|
b---5-----------------------------------------------------3-----------------|
g---6-----------------------------------------------------4-----------------|
d---7-----------------------------------------------------5-----------------|
a---7-----------------------------------------------------5-----------------|
E---5-----------------------------------------------------3-----------------|
    We  are  but  a  moments  sunlight  Fading  in  the  grass


e---------------------------------------------------------------------------|
b---7------------------9----------------------------------------------------|
g---7------------------9----------------------------------------------------|
d---7------------------9----------------------------------------------------|
a---5------------------7----------------------------------------------------|
E---------------------------------------------------------------------------|
    C'mon  people  now,  Smile  on  your  brother


e---5--------------------------------------------------------------5--------|
b---5------------------------------------7-----------9-------------5--------|
g---6------------------------------------7-----------9-------------6--------|
d---7------------------------------------7-----------9-------------7--------|
a---7------------------------------------5-----------7-------------7--------|
E---5--------------------------------------------------------------5--------|
    Ev'rybody  get  together  Try  and  love  one  another  right  now
                                                                       ::2x::
                      :::: ::::SOLO:::: ::::
e--5------------------------------------------------------3-----------------|
b--5------------------------------------------------------3-----------------|
g--6------------------------------------------------------4-----------------|
d--7------------------------------------------------------5-----------------|
a--7------------------------------------------------------5-----------------|
E--5------------------------------------------------------3-----------------|
   If  you  hear  the  song  I  sing,  You  must  understand

e---5------------------------------------------------------------------3---|
b---5------------------------------------------------------------------3---|
g---6------------------------------------------------------------------4---|
d---7------------------------------------------------------------------5---|
a---7------------------------------------------------------------------5---|
E---5------------------------------------------------------------------3---|
   You  hold  the  key  to  love  and  fear  All  in  your  trembling  hand

e--5-----------------------------------------------------------3-----------|
b--5-----------------------------------------------------------3-----------|
g--6-----------------------------------------------------------4-----------|
d--7-----------------------------------------------------------5-----------|
a--7-----------------------------------------------------------5-----------|
E--5-----------------------------------------------------------3-----------|
   Just  one  key  unlocks  them  both  It's  there  at  your  command

e-------------------------------------------------------------------------|
b---7-----------------9---------------------------------------------------|
g---7-----------------9---------------------------------------------------|
d---7-----------------9---------------------------------------------------|
a---5-----------------7---------------------------------------------------|
E-------------------------------------------------------------------------|
   C'mon  people  now,  Smile  on  your  brother

e---5-------------------------------------------------------------5-------|
b---5----------------------------------7-----------9--------------5-------|
g---6----------------------------------7-----------9--------------6-------|
d---7----------------------------------7-----------9--------------7-------|
a---7----------------------------------5-----------7--------------7-------|
E---5-------------------------------------------------------------5-------|
   Ev'rybody  get  together  Try  and  love  one  another  right  now
                                                                       ::3x::

            
            
Suggest correction
Creating personal tab
Creating personal tab
You can edit any tab online and save it as your Personal.

You can edit, replace or remove any tab part or add personal notes – all changes will be seen only by you.

Personal tabs can be accessed anytime from any device, even offline.
Learn more »
comments
print report bad tab
guest
Wanna post a correction for this tab? Suggest correction