Oops, an error
Loading. Please wait.

I Qualunquisti Tab

3,504 views 12 this week
no commentswrite comment
1 2 3 4 5
accurate
x 4
add to favorites
launch autoscroll
font size
0
reset
how to read this tab
guitar tuner
Tab Pro tools
  • play this tab
  • loop segment
  • change instrument
  • show fretboard
  • metronome
×
Best way to learn
"I Qualunquisti"
Autoscroll
slow
fast
+/-
esc
set tempo
stop
Contributor
Difficulty
Commentate o date un rating cazzoni!


e------------------------------------------------------()
b------------------------------------------------------()
g---8-8-8-8//xx---8-8-8-8v-9--9--9--9-----9--9p11-8s6--()
D----9-9-9-9//xx-9-9-9-9----11-11-11-11-11-------------()
A------------------------------------------------------()
E------------------------------------------------------()

e----------------------------()
b----------------------------()
g--88-8--8s66--8-6-4-3-4-6-4-()
D--xx-x--xsxx--x-x-x-x-x-x-x-()
A--66-6--6s44--6-4-2-1-2-4-2-()
E----------------------------()
 
   ^v ^  ^ ^^  ^ V ^ V ^ V ^


Strofa [B - C#M]"L'ultimo dei tuoi problemi è trovare da mangiare
l'ultimo dei tuoi pensieri è che qualcuno ti possa odiare.."

[B - C#m -B]vincere e vinceremo"


[E - C#m - F# - B] "Non chiamarci proletari ..."
[E - C#m] "piuttosto siamo dei velleitari..."
[F#//E//D#//C#] "Gente come te..."   dal F# nono tasto a scendere

Ritornello [B - E/B - C#m - F#/C#] "Pensa poco..baleno"
" E tira a campare..." riprende [F#//E//D#//C#]

Intermezzo

e------------------------------------------------------()
b--------11-9-7-------11-9-7s5--4h5p4h5p4-4h5p4h5p4----()
g------8------------8----------------------------------()
D----9------------99-----------------------------------()
A------------------------------------------------------()
E------------------------------------------------------()

e--------------------()
b--------------------()
g------8-6-4-3-4-6-4-()
D------x-x-x-x-x-x-x-()
A------6-4-2-1-2-4-2-()
E--------------------()
 
   ^v ^  ^ ^^  ^ V ^ V ^ V ^

***TizianoTheFalco***
comments
print report bad tab
I want to post or [tab]
guest
You may want to rate the tab now too:
select rating
Please do not post tabs as comments. Select "correction" instead!