Oops, an error
Loading. Please wait.

Legoista chords

1,135 views 24 this week
1 commentread comment
1 2 3 4 5
3 more votes to show rating
add to favorites
×
Save as Personal and add changes to this tab that will be seen only by you. Learn more ›
×
You can save this tab as Personal to edit and correct it or add notes. All changes will be seen only by you. Learn more »
launch autoscroll
font size
0
reset
transpose
0
reset
display chords
guitar tuner
edit
Autoscroll
slow
fast
+/-
esc
set tempo
stop
Author
Difficulty
Strumming
There is no strumming pattern for this song yet. and get +5 IQ
[Intro]

e|------------------------|------------------------|
B|------------------------|------------------------|
G|----2-----2-----2-----2-|----2-----2-----2-----2-| X3
D|------------------------|-0-----0-----4-----4----|
A|-0-----0-----4-----4----|------------------------|
E|------------------------|------------------------|

e|------------------------|------------------------|
B|------------------------|------------------------|
G|----2-----2-----2-----2-|------------------------| 
D|-2-----2-----0-----0----|------------------------|
A|------------------------|-4-----0-----------12---|
E|------------------------|------------------------|


[Verse]

F#m  D   A
  Col disincanto 
F#m  D   A
  ci marci un po'. 
F#m      E     A     D     A     E       A
Un giorno ti ritroverai di fronte al tuo vecchio. 
F#m    D   A
 Quando lui è morto
F#m  D   A
 ricordi che 
F#m      E     A     D     A     E       A
L'hai pianto un secondo, hai pensato solo a te. 


[Chorus]

F#m  D   A
 Un egoista,
F#m  D   A 
 altro non sei. 
F#m      E     A     D     A     E       A
Tua madre, vecchia pazza, lo diceva pure lei. 
E        D      A
Tu sconti non ne fai, 
E        D      A
Tu fai pagare tutti. 


[Instrumental]

e|------------------------|------------------------|
B|------------------------|------------------------|
G|----2-----2-----2-----2-|----2-----2-----2-----2-| X3
D|------------------------|-0-----0-----4-----4----|
A|-0-----0-----4-----4----|------------------------|
E|------------------------|------------------------|

e|------------------------|------------------------|
B|------------------------|------------------------|
G|----2-----2-----2-----2-|------------------------| 
D|-2-----2-----0-----0----|------------------------|
A|------------------------|-4-----0-----------12---|
E|------------------------|------------------------|


[Verse]

F#m  D   A
 Del resto se 
F#m  D   A
 sei ancora vivo, 
F#m      E     A     D     A     E       A
Lo devi quasi tutto alla gente che odi e che... 
F#m  D   A
 E che festa sia, 
F#m  D   A
 Ma di quelle vere, 
F#m      E     A     D     A     E       A
Con tutti gli ubriachi, e che indicano te. 


[Chorus]

F#m  D   A
Un egoista, 
F#m  D   A
per necessità. 
F#m      E     A     D     A     E       A
Necessità di vivere, che non l'hai chiesta a me. 
F#m  D   A
Un egoista, 
F#m  D   A
solo perché
F#m      E     A     D     A     E       A
Di vecchi, stronzi e falsi ne hai incontrati troppi e 
E        D      A
Tu sconti non ne fai, 
E        D      A
Tu fai pagare tutti. 


[Outro]

e|------------------------|------------------------|
B|------------------------|------------------------|
G|----2-----2-----2-----2-|----2-----2-----2-----2-| X3
D|------------------------|-0-----0-----4-----4----|
A|-0-----0-----4-----4----|------------------------|
E|------------------------|------------------------|

e|------------------------|------------------------|
B|------------------------|------------------------|
G|----2-----2-----2-----2-|------------------------| 
D|-2-----2-----0-----0----|------------------------|
A|------------------------|-4-----0-----------12---|
E|------------------------|------------------------|



            
            
Suggest correction
Creating personal tab
Creating personal tab
You can edit any tab online and save it as your Personal.

You can edit, replace or remove any tab part or add personal notes – all changes will be seen only by you.

Personal tabs can be accessed anytime from any device, even offline.
Learn more »
Give kudos to tab author, rate the tab!
1 2 3 4 5
comments
print report bad tab
1 comment total.
0 reply
Freakytuktuk 10 Aug 28, 2016 08:34 AM

Leghista haha

guest
You may want to rate the tab now too:
select rating
Wanna post a correction for this tab? Suggest correction