Oops, an error
Loading. Please wait.

Ancient Mars Tab

3,352 views 15 this week
4 commentsread comments
1 2 3 4 5
worth learning
x 3
add to favorites
launch autoscroll
font size
0
reset
how to read this tab
guitar tuner
Tab Pro tools
  • play this tab
  • loop segment
  • change instrument
  • show fretboard
  • metronome
×
Best way to learn
"Ancient Mars"
Autoscroll
slow
fast
+/-
esc
set tempo
stop
Contributor
Difficulty
intermediate
Listen to the song for timings as they're very specific in places.

Intro:

E-----------------------0---0----3p0----------------------------0---0----3p0---------|
B------1----3p1------0--4/2----2------2---0------1---3p1------0-4/2----2-----2---0---|
G-0h2----2------2p0---------------------0---0--2---2-----2p0-------------------0---0-|
D------------------------------------------------------------------------------------|
A------------------------------------------------------------------------------------|
E------------------------------------------------------------------------------------|

|--------------------0---0----3p0----------------------------0---0----3p0-------0---3p0---|
|---1----3p1------0--4/2----2------2---0------1---3p1------0-4/2----2------2-2----2-----2-|
|-2---2------2p0---------------------0---0--2---2-----2p0---------------------------------|
|-----------------------------------------------------------------------------------------|
|-----------------------------------------------------------------------------------------|
|-----------------------------------------------------------------------------------------|

Underneath Intro (Palm Muted):

E----------------------------------------------------------------|
B----------------------------------------------------------------|
G----------------------------------------------------------------|
D----------------------------------------------------------------|
A--0-x-0----------3-x-3----------0-x-0----------3-x-3---x-3-2----|
E--------x-3-1-3--------x-3-1-3--------x-3-1-3-----------------3-|

|---------------------------------------------------------------|
|---------------------------------------------------------------|
|---------------------------------------------------------------|
|---------------------------------------------------------------|
|--0-x-0----------3-x-3----------0-x-0----------3-x-3---x-3-x-3-|
|--------x-3-1-3--------x-3-1-3--------x-3-1-3------------------|

Verse(Palm Muted):

E-----------------------------------------------|
B-----------------------------------------------|
G-----------------------------------------------|
D-----------------------------------------------| (x3)
A--0---0--------------3---3---------------------|
E-3--------3-1---1---3--------3-1---1-1---3-----| 

Chorus (Palm Muted):

E----------------------------------------------------------------|
B----------------------------------------------------------------|
G----------------------------------------------------------------|
D----------------------------------------------------------------|
A--0-x-0----------3-x-3----------0-x-0----------3-x-3---x-3-2----|
E-3------x-3-1-3--------x-3-1-3--------x-3-1-3-----------------3-|

|---------------------------------------------------------------|
|---------------------------------------------------------------|
|---------------------------------------------------------------|
|---------------------------------------------------------------|
|--0-x-0----------3-x-3----------0-x-0----------3-x-3---x-3-x-3-|
|-3------x-3-1-3--------x-3-1-3--------x-3-1-3------------------|

Verse x3

Chorus

Verse (Palm Muted):

E-----------------------------------------------|
B-----------------------------------------------|
G-----------------------------------------------|
D-----------------------------------------------| (x3)
A--0------------------3-------------------------|
E----------3-1----------------3-1---1-----------| 

Chorus (No Guitar)

Interlude:

E-----------------------0---0----3p0----------------------------0---0----3p0---------|
B------1----3p1------0--4/2----2------2---0------1---3p1------0-4/2----2-----2---0---|
G-0h2----2------2p0---------------------0---0--2---2-----2p0-------------------0---0-|
D------------------------------------------------------------------------------------|
A------------------------------------------------------------------------------------|
E------------------------------------------------------------------------------------|

Chorus:

E-----------------------0---0----3p0----------------------------0---0----3p0---------|
B------1----3p1------0--4/2----2------2---0------1---3p1------0-4/2----2-----2---0---|
G-0h2----2------2p0---------------------0---0--2---2-----2p0-------------------0---0-|
D------------------------------------------------------------------------------------| To End
A------------------------------------------------------------------------------------|
E------------------------------------------------------------------------------------|

Last Repeat Ends with this:

E-------|
B---0~--|
G-0h2~--|
D-------|
A-------|
E-------|

Underneath Outro & Chorus (Palm Muted):

E----------------------------------------------------------------|
B----------------------------------------------------------------|
G----------------------------------------------------------------|
D----------------------------------------------------------------| To End
A--0-x-0----------3-x-3----------0-x-0----------3-x-3---x-3-2----|
E--------x-3-1-3--------x-3-1-3--------x-3-1-3-----------------3-|
comments
We did not receive enough feedback on this tab! Please rate:
print report bad tab
1 2 3 4 5
4 comments total. Showing first comments.
0 reply
tmpscott wrote on July 31 2015, 03:57 pm

Lack of accuracy. The intro tab is incorrect, and goes throughout the entire song. so the tab really is just poor and not accurate

+1 reply
joebutler580 wrote on August 30 2015, 11:13 am, edited at 11:20 am

E--------------------------------3-------|
B-----------------------3h5--5----5------|
G------5---7p5------4----------5---5---4-| x2
D-5h7----7-------5------------------5----|
A----------------------------------------|
E----------------------------------------|

E--------------------------------3-------------3----|
B-----------------------3h5--5----5------5------5---|
G------5---7p5------4----------5------5-----5----5--|
D-5h7----7-------5----------------------------------|
A---------------------------------------------------|
E---------------------------------------------------|

0 reply
joebutler580 wrote on August 30 2015, 11:27 am

The above ^ I think is the correct intro tab.

I want to post or [tab]
guest
You may want to rate the tab now too:
select rating
Please do not post tabs as comments. Select "correction" instead!